Oops, an error
Loading. Please wait.
333 views 1 this week
no commentswrite comment
1 2 3 4 5
2 more votes to show rating
add to favorites
launch autoscroll
font size
0
reset
how to read this tab
guitar tuner
×
Best way to learn
"El Rey"
Autoscroll
slow
fast
+/-
esc
set tempo
stop
1--0--3--0--3--0--0--3--0-------0--2--3--0--3--0--0--------
2--2--5--2--5--2--2--5--2-------2--3--5--2--5--2--2--3--2--
3----------------------------------------------------4--3--
4----------------------------------------------------------
5----------------------------------------------------------
6----------------------------------------------------------

                           REM
1--0--2--3--3--0--5--3--2--2--2--2--2
2--2--3--5--5--2--7--5--3--3--3--3--3
3--------------------------2--2--2--2
4------------------------------------
5-------------------------0----------
6-------------------------------0----
un saludo atodos los chavos de la bodega mark atletic bayy
Suggest correction
Give kudos to tab author, rate the tab!
1 2 3 4 5
comments
print report bad tab
guest
You may want to rate the tab now too:
select rating
Wanna post a correction for this tab? Suggest correction