Oops, an error
Loading. Please wait.
267 views 1 this week
no commentswrite comment
1 2 3 4 5
3 more votes to show rating
add to favorites
launch autoscroll
font size
0
reset
how to read this tab
guitar tuner
×
Best way to learn
"Ella"
Autoscroll
slow
fast
+/-
esc
set tempo
stop
G-------------------------
B-12-12-12-10-9-12-12-----
e-10-10-10-9--7-10-10-----

G-------------------------
B-10-9-9-13-13-12-12-10---
e-9--7-7-12-12-10-10-9----

G-------------------------
B-10-10-10-12-10-10-9-----
e-9--9--9--10-9--9--7-----

G-------------------------
B-9--12--9--7--5----------
e-7--10--7--5--4----------

G-------------------------
B-5---7---5---4---5-------
e-4---5---4---2---4-------

 La cagan perrines, si quieren una
melodia o requinto de alguien
solo mandenme 3 peticiones a donde 
ya saben
Suggest correction
Give kudos to tab author, rate the tab!
1 2 3 4 5
comments
print report bad tab
guest
You may want to rate the tab now too:
select rating
Wanna post a correction for this tab? Suggest correction