Oops, an error
Loading. Please wait.
97 views 1 this week
no commentswrite comment
1 2 3 4 5
3 more votes to show rating
add to favorites
launch autoscroll
font size
0
reset
how to read this tab
guitar tuner
×
Best way to learn
"Vamonos"
Autoscroll
slow
fast
+/-
esc
set tempo
stop
E----------------------------------------
D----------------------------------------
A----------------------------------------
G----------------------------------------
B-10-9-7-7-9-10-10-9-10---9---9-9-10-10-9
E--9-7-5-5-7--9--9-7--9---7---7-7--9--9-7

E-----------------------------------------
D-----------------------------------------
A-----------------------------------------
G-----------------------------------------
B-10-10-12-11-11-9---10-9-7-7-9-10-10-9-10
E--9--9-11-10-10-7----9-7-5-5-7--9--9-7--9

E------------------------------------------
D------------------------------------------
A------------------------------------------
G------------------------------------------
B-9---9-9-10-10-9----10-10-12-11-11-9------
E-7---7-7--9--9-7-----9--9-11-10-10-7------

E------------------------------------------
D------------------------------------------
A-----2------------------------------------
G-----2------------------------------------
B-7-5-2------------------------------------
E-5-3--------------------------------------
Suggest correction
Give kudos to tab author, rate the tab!
1 2 3 4 5
comments
print report bad tab
guest
You may want to rate the tab now too:
select rating
Wanna post a correction for this tab? Suggest correction