Oops, an error
Loading. Please wait.

Ensename A Mis Hijos Tab

2 views 1 this week
no commentswrite comment
1 2 3 4 5
3 more votes to show rating
add to favorites
launch autoscroll
font size
0
reset
how to read this tab
guitar tuner
Autoscroll
slow
fast
+/-
esc
set tempo
stop
Help us to improve Ultimate-Guitar.com Take our survey!
×
Una bachata de que toco el saxofonista Jose 'El Calvo'
con Nelson de la Olla.
Normalmente toca perico ripiao.

Clave de G# Min
C# min      X-X-14-13-14-X
D#      X-X-X-12-11-11
G# min      X-X-13-13-12-X
G#      X-X-13-13-13-X
B       X-X-13-11-12-X
D#II      X-X-13-12-11-X

Intro:
|-----------11--14---12------------------12---11-|
|-14-14-14-----------------12-12-12--14----------|
|------------------------------------------------|
|------------------------------------------------|
|------------------------------------------------|
|------------------------------------------------|

|----------------11----------------------|
|--11-11-11--12-------14----12-12-12--14-|
|----------------------------------------|
|----------------------------------------|
|----------------------------------------|
|----------------------------------------|

|-----------11--14---12------------------12---11-|
|-14-14-14-----------------12-12-12--14----------|
|------------------------------------------------|
|------------------------------------------------|
|------------------------------------------------|
|------------------------------------------------|

|---------------11--------------------11-----------------|
|-11-11-11--12------14--12--11--13--------14--12--11--13-|
|--------------------------------------------------------|
|--------------------------------------------------------|
|--------------------------------------------------------|
|--------------------------------------------------------|

Verso:
G#m     G#        C#m  
Si me dejaste por otro
D#                 G#m  
Adios, que te vaya bien
       G#        C#m  
Y para que tu lo sepas
D#                G#m  
Ya tengo a otra mujer
         G#          C#m  
Y por lo que tu me hiciste
D#                 G#m  
No guardo ningun dolor
         G#        C#m  
Porque a una mujer mala
D#                 G#m  
No se le guarda rencor


Coro:
G#            C#m                B
Y cuidame mis hijos, eso es tu deber
            D#II              G#m  
Y de vez en cuando, dejamelos ver
G#            C#m                B
Y cuidame mis hijos, eso es tu deber
              D#II             G#m  
Yo se que son tuyos, y mios tambien


Intro de nuevo

Verso II:
G#m      G#        C#m  
Yo presenti a tu engano
D#              G#m  
En tu manera de ser
          G#         C#m  
Sabia que tarde o temprano
D#            G#m  
Eso iba a suceder
        G#      C#m  
Por eso te lo repito
D#                 G#m  
Que nada me sorprendio
         G#        C#m  
Y por mi vivir tranquilo
D#                G#m  
Todo se lo dejo a Dios


Coro de nuevo

Intro de nuevo con alto saxo

Coro

Solo de guitarra

Coro

Finaliza con las primeras dos frases del primer verso
Suggest correction
Give kudos to tab author, rate the tab!
1 2 3 4 5
comments
print report bad tab
guest
You may want to rate the tab now too:
select rating
Wanna post a correction for this tab? Suggest correction