Oops, an error
Loading. Please wait.

Rain Tab

5,927 views 6 this week
no commentswrite comment
1 2 3 4 5
please rate
add to favorites
launch autoscroll
font size
0
reset
how to read this tab
guitar tuner
Autoscroll
slow
fast
+/-
esc
set tempo
stop
Help us to improve Ultimate-Guitar.com Take our survey!
×
Author
#----------------------------------PLEASE NOTE---------------------------------#
#This file is the author's own work and represents their interpretation of the #
#song. You may only use this file for private study, scholarship, or research. #
#------------------------------------------------------------------------------#

Date: 02.10.2005
Tabbed by Peter Tuyp(peter.tuyp@wxs.nl)

subject: Jose Feliciano - Rain


Chords:
Standard tuning
Em      022000
C/b     022010
C       032010
Am      x02210
Asus2   x02200
Esus4   022200
B7      021202
B       224442
G       320003
Ap = appregio

Capo on 2nd fret


Intro:
  Em  C/b       Em      C         Em  C/b       Em      C    
|-----------------------------------------------------------------|
|-----0h1-------0-------1-------------0h1-------0-------1---------|
|-----------0-------0-------0---0-----------0-------0-------0---0-|
|-----2-------2-------2-------2-------2-------2-------2-------2---|
|-----------------------------------------------------------------|
|-0-------0-------0-------0-------0-------0-------0-------0-------|

  Em  C/b       Em      C         Em  C/b       Em      C 
|-----------------------------------------------------------------|
|-----0h1-------0-------1-------------0h1-------0-------1---------|
|-----------0-------0-------0---0-----------0-------0-------0---0-|
|-----2-------2-------2-------2-------2-------2-------2-------2---|
|-----------------------------------------------------------------|
|-0-------0-------0-------0-------0-------0-------0-------0-------|

  Em  C/b       Em      C         Em  C/b       Em      C
|-----------------------------------------------------------------|
|-----0h1-------0-----0h1-------------0h1-------0-----0h1---------|
|-----------0-------0-------0---0-----------0-------0-------0---0-|
|-----2-------2-------2-------2-------2-------2-------2-------2---|
|-----------------------------------------------------------------|
|-0-------0-------0-------0-------0-------0-------0-------0-------|
  Listen to the pouring rain listen to it pour

  Em  C/b       Em      C         Am      Asus2   Am      Asus2
|-----------------------------------------------------------------|
|-----0h1-------0-----0h1-------------1-------0-------1-------0---|
|-----------0-------0-------0---0-------2-------2-------2-------2-|
|-----2-------2-------2-------2-------2-----2---------2-----2-----|
|---------------------------------0-------0-------0-------0-------|
|-0-------0-------0-------0---------------------------------------|
  And with every drop of rain you know I love you more

  Am7     Asus2   Am7     Asus2   Em      Esus4   Em      Esus4
|-----------------------------------------------------------------|
|-----1-------0-------1-------0-------0---------------0-----------|
|-------0-------2-------0-------2-------0-----2p0-------0-----2p0-|
|-----2-----2---------2-----2---------2-----2---------2-----2-----|
|-0-------0-------0-------0---------------2---------------2-------|
|---------------------------------0---------------0---------------|
  Let it rain all night long      Let my love for you grow strong

  C                               B7
|-0---0---0---0---0---0---0-------2---2---2---2---2---------------|
|-1---1---1---1---1---1---1-------0---0---0---0---0---------------|
|-0---0---0---0---2---2---0---0---2---2---2---2---2---------------|
|-----------------------------0-------------------------------1---|
|-2-------2-------0-------2-------2-------2-------2---2---4-------|
|-----------------------------------------------------------------|
  As long as we're together       Who cares about the weather

  Em
|-----0---------------0---------------0---------------0-----------|
|-----0---------------0---------------0---------------0-----------|
|-----0-------0-------0-------0-------0-------0-------0-------0---|
|-----------2---2-----------2---2-----------2---2-----------2---2-|
|---------2---------------2---------------2---------------2-------|
|-0---------------0---------------0---------------0---------------|
  Listen to the falling rain listen to it fall

  Em                              Am        
|-----0---------------0---------------0---------------0-----------|
|-----0---------------0---------------1---------------1-----------|
|-----0-------0-------0-------0-------2-------2-------2-------2---|
|-----------2---2-----------2---2-----------2---2-----------2---2-|
|---------2---------------2-------0---------------0---------------|
|-0---------------0-----------------------0---------------0-------|
  And with every drop of rain I can hear you call

  Am                              Em           
|-----0---------------0-------0-------0---------------0-----------|
|-----1---------------1-------1-------0---------------0-----------|
|-----2-------2-------2-------0-------0-------0-------0-------0---|
|-----------2---2---------0-2---------------2---2-----------2---2-|
|-0---------------0-----------------------2---------------2-------|
|---------0-----------------------0---------------0---------------|
  Call my name right out loud     I can hear above the clouds

  B                               C            
|-----2---------------2---------------0---------------0-----------|
|-----4---------------4---------------1---------------1-----------|
|-----4-------4-------4-------4-------0-------0-------0-------0---|
|-----------4---4-----------4---4-----------2---2-----------2---2-|
|-2---------------2---------------3---------------3---------------|
|---------2---------------2---------------3---------------3-------|
  And down here among the puddles,You and I together huddle  

  B7                              Em    C/b
|-----2---------------2---------------0---------------------------|
|-----0---------------0---------------0h1-------0-----------------|
|-----2-------2-------2-------2-------0-----0---------------------|
|-----------1---1-----------1---1-------------2-------------------|
|-2---------------2-----------------------2-----------------------|
|---------2---------------2-------0---------------0---0---1---2---|
  Listen to the falling rain, listen to the rain              It's

  G       C       G       C       G       C       G       C
|-3---3-3-0---0---3---3-3-0---0---3---3-3-0---0---3---3-3-0---0---|
|-0---0-0-1---1---0---0-0-1---1---0---0-0-1---1---0---0-0-1---1---|
|-0---0-0-0---0---0---0-0-0---0---0---0-0-0---0---0---0-0-0---0---|
|-----0-0-----2-------0-0-----2-------0-0-----2-------0-0-----2---|
|---------3---------------3---------------3---------------3-------|
|-3---------------3---------------3---------------3---------------|
  raining, it's   pouring     The old man is      snoring       He

  G                                                       B7
|-3---3-3-0---0---3---3-3-0---0---3---3-3-0---0---3---3-3-2---2--2--2-|
|-0---0-0-1---1---0---0-0-1---1---0---0-0-1---1---0---0-0-0---0--0--0-|
|-0---0-0-0---0---0---0-0-0---0---0---0-0-0---0---0---0-0-2---2--2--2-|
|-----0-0-----2-------0-0-----2-------0-0-----2-------0-0-----1--1--1-|
|---------3---------------3---------------3---------------2-----------|
|-3---------------3---------------3---------------3-------------------|
  went to bed and he bumped is head, he couldn't get up in the morning

  B7               Em
|-2-2-2-2-2-2-2-2----------------------------------|
|-0-0-0-0-0-0-0-0----------------------------------|
|-2-2-2-2-2-2-2-2--------0-----0---0-------0-------|
|-1-1-1-1-1-1-1-1------2-----2---2---2---2---2---2-|
|--------------------2-----2-----------2-------2---|
|------------------0-------------------------------|

  Em
|-----0---------------0---------------0---------------0-----------|
|-----0---------------0---------------0---------------0-----------|
|-----0-------0-------0-------0-------0-------0-------0-------0---|
|-----------2---2-----------2---2-----------2---2-----------2---2-|
|---------2---------------2---------------2---------------2-------|
|-0---------------0---------------0---------------0---------------|
  Listen to the falling rain listen to it fall

  Em                              Am        
|-----0---------------0---------------0---------------0-----------|
|-----0---------------0---------------1---------------1-----------|
|-----0-------0-------0-------0-------2-------2-------2-------2---|
|-----------2---2-----------2---2-----------2---2-----------2---2-|
|---------2---------------2-------0---------------0---------------|
|-0---------------0-----------------------0---------------0-------|
  And with every drop of rain I can hear you call

  Am                              Em           
|-----0---------------0---------------0---------------0-----------|
|-----1---------------1---------------0---------------0-----------|
|-----2-------2-------2-------2-------0-------0-------0-------0---|
|-----------2---2-----------2---2-----------2---2-----------2---2-|
|-0---------------0-----------------------2---------------2-------|
|---------0---------------0-------0---------------0---------------|
  Call my name right out loud     I can hear above the clouds

  B                               C            
|-----2---------------2---------------0---------------0-----------|
|-----4---------------4---------------1---------------1-----------|
|-----4-------4-------4-------4-------0-------0-------0-------0---|
|-----------4---4-----------4---4-----------2---2-----------2---2-|
|-2---------------2---------------3---------------3---------------|
|---------2---------------2---------------3---------------3-------|
  And down here among the puddles,You and I together huddle  

  B7                              Em    C/b
|-----2---------------2---------------0---------------------------|
|-----0---------------0---------------0h1-------0-----0h1---------|
|-----2-------2-------2-------2-------0-----0---------------0---0-|
|-----------1---1-----------1---1-------------2-------2-------2---|
|-2---------------2-----------------------2---------------2-------|
|---------2---------------2-------0---------------0---------------|
  Listen to the falling rain, listen to the rain    

  B7                              Em    C/b
|-----2---------------2---------------0---------------------------|
|-----0---------------0---------------0h1-------0-----0h1---------|
|-----2-------2-------2-------2-------0-----0---------------0---0-|
|-----------1---1-----------1---1-------------2-------2-------2---|
|-2---------------2-----------------------2---------------2-------|
|---------2---------------2-------0---------------0---------------|
  Listen to the falling rain, listen to the rain                        

  B7                              Em    C/b
|-----2---------------2---------------0---------------------------|
|-----0---------------0---------------0h1-------0-----0h1---------|
|-----2-------2-------2-------2-------0-----0---------------0---0-|
|-----------1---1-----------1---1-------------2-------2-------2---|
|-2---------------2-----------------------2---------------2-------|
|---------2---------------2-------0---------------0---------------|
  Listen to the falling rain, listen to the rain                mhmh

  B7                              Em    C/b
|-----2---------------2---------------0---------------------------|
|-----0---------------0---------------0h1-------0-----0h1---------|
|-----2-------2-------2-------2-------0-----0---------------0---0-|
|-----------1---1-----------1---1-------------2-------2-------2---|
|-2---------------2-----------------------2---------------2-------|
|---------2---------------2-------0---------------0---------------|
  Listen to the falling rain, listen to the rain          

  Em  C/b       Em      C         Em  C/b       Em      C    
|-----------------------------------------------------------------|
|-----0h1-------0-------1-------------0h1-------0-------1---------|
|-----------0-------0-------0---0-----------0-------0-------0---0-|
|-----2-------2-------2-------2-------2-------2-------2-------2---|
|-----------------------------------------------------------------|
|-0-------0-------0-------0-------0-------0-------0-------0-------|

  Em  C/b       Em      C         Em  C/b       Em      C 
|-----------------------------------------------------------------|
|-----0h1-------0-------1-------------0h1-------0-------1---------|
|-----------0-------0-------0---0-----------0-------0-------0---0-|
|-----2-------2-------2-------2-------2-------2-------2-------2---|
|-----------------------------------------------------------------|
|-0-------0-------0-------0-------0-------0-------0-------0-------|
   Rain                                               mhmhm

  Em  C/b       Em      C         Em  C/b       Em      C           Em
|-------------------------------------------------------------------0-|
|-----0h1-------0-------1-------------0h1-------0-------1-----------0-|
|-----------0-------0-------0---0-----------0-------0-------0---0---0-|
|-----2-------2-------2-------2-------2-------2-------2-------2-----2-|
|-------------------------------------------------------------------2-|
|-0-------0-------0-------0-------0-------0-------0-------0---------0-|
                                                                    Ap
Suggest correction
Give kudos to tab author, rate the tab!
1 2 3 4 5
comments
print report bad tab
guest
You may want to rate the tab now too:
select rating
Wanna post a correction for this tab? Suggest correction