Oops, an error
Loading. Please wait.

15 Inviernos Tab

14 views 3 this week
no commentswrite comment
1 2 3 4 5
3 more votes to show rating
add to favorites
×
Save as Personal and add changes to this tab that will be seen only by you. Learn more ›
×
You can save this tab as Personal to edit and correct it or add notes. All changes will be seen only by you. Learn more »
save as personal
new!
launch autoscroll
font size
0
reset
how to read this tab
guitar tuner
Autoscroll
slow
fast
+/-
esc
set tempo
stop
ESCUCHA LA ROLA PARA KE ENTRES AL TIEMPO
/SLIDE
XPALM MUTE


INTRO:

  E5/A5

e-------|-------|-------|-------------|--------------|---------------|
B-------|-------|-------|-------------|--------------|---------------|
G-------|-------|-------|-------------|--------------|---------------|
D--2/7--|--2/7--|--2/7--|-------------|--------------|---------------|
A--2/7--|--2/7--|--2/7--|-0--7--5/3-0-|-0--7--5/3/1--|-0--7--5/3/8-7-|
E--0/5--|--0/5--|--0/5--|-------------|--------------|---------------|


e-------------|--------------|----------------|
B-------------|--------------|----------------|
G-------------|--------------|----------------|
D-------------|--------------|----------------|
A-0--7--5/3-0-|-0--7--5/3/1--|-0--7--5/3/8-7--|
E-------------|--------------|----------------|


VERSO

QUINCE AÑOS ATRAS PERDISTE A TU MAMÁ UNA VIDA POR OTRA

e-----------------------------------------------------|
B-----------------------------------------------------|
G-----------------------------------------------------|
D-X-X-2-X-X-2-X-X-2-X-X-2-X-X-2-X-X-2-X-X-2-7------5--|
A-X-X-2-X-X-2-X-X-2-X-X-2-X-X-2-X-X-2-X-X-2-7------5--|
E-X-X-0-X-X-0-X-X-0-X-X-0-X-X-0-X-X-0-X-X-0-5------3--|


e-------|-------|-------|
B-------|-------|-------|
G-------|-------|-------|
D--2/7--|--2/7--|--2/7--|
A--2/7--|--2/7--|--2/7--|
E--0/5--|--0/5--|--0/5--|


TODOS MURMURARAN TODOS SE BURLARAN SE TE NOTA LA PANZA


e-----------------------------------------------------|
B-----------------------------------------------------|
G-----------------------------------------------------|
D-X-X-2-X-X-2-X-X-2-X-X-2-X-X-2-X-X-2-X-X-2-7------5--|
A-X-X-2-X-X-2-X-X-2-X-X-2-X-X-2-X-X-2-X-X-2-7------5--|
E-X-X-0-X-X-0-X-X-0-X-X-0-X-X-0-X-X-0-X-X-0-5------3--|

CORO


                       HOY YA ERES MUJER, TUS 15 INVIERNOS

e-------|-------------|--------------|---------------|
B-------|-------------|--------------|---------------|
G-------|-------------|--------------|---------------|
D--2/7--|-------------|--------------|---------------|
A--2/7--|-0--7--5/3-0-|-0--7--5/3/1--|-0--7--5/3/8-7-|
E--0/5--|-------------|--------------|---------------|

HOY TIENES KE VAILAR TIENES KE CELEBRAR TUS 15 INVIERNOS


e-------------|--------------|----------------|
B-------------|--------------|----------------|
G-------------|--------------|----------------|
D-------------|--------------|----------------|
A-0--7--5/3-0-|-0--7--5/3/1--|-0--7--5/3/8-7--|
E-------------|--------------|----------------|


UN GANCHO UN SUSPIRO UN LEVE QUEJIDO UNA NIÑA ROTA EL OLOR A FORMOL EL OLOR DEL ALCOHOL 
TAN CERCA DE TU BOCA, EL DOLOR DE TU PIEL TU TE SIENTES TAN CRUEL SU VIDA SE AGOTA, 
GOTA A GOTA SE VA PERO NADIE SABRA ASI YA NO SE NOTA


                       HOY YA ERES MUJER, TUS 15 INVIERNOS

e-------|-------------|--------------|---------------|
B-------|-------------|--------------|---------------|
G-------|-------------|--------------|---------------|
D--2/7--|-------------|--------------|---------------|
A--2/7--|-0--7--5/3-0-|-0--7--5/3/1--|-0--7--5/3/8-7-|
E--0/5--|-------------|--------------|---------------|

HOY TIENES KE VAILAR TIENES KE CELEBRAR TUS 15 INVIERNOS


e-------------|--------------|----------------|
B-------------|--------------|----------------|
G-------------|--------------|----------------|
D-------------|--------------|----------------|
A-0--7--5/3-0-|-0--7--5/3/1--|-0--7--5/3/8-7--|
E-------------|--------------|----------------|

ROLA MEGA ENFERMA NO?
Suggest correction
Give kudos to tab author, rate the tab!
1 2 3 4 5
comments
print report bad tab
guest
Wanna post a correction for this tab? Suggest correction