Oops, an error
Loading. Please wait.

Adicto A Tu Dolor Tab

version 1
version 1

Whole song

8 views 1 this week
no commentswrite comment
1 2 3 4 5
3 more votes to show rating
add to favorites
launch autoscroll
font size
0
reset
how to read this tab
guitar tuner
×
Best way to learn
"Adicto A Tu Dolor"
Autoscroll
slow
fast
+/-
esc
set tempo
stop
que onda esta es un de las canciones de 
su disco llamado forseps 333 espero la disfruten.

-------------------------------------------
-------------------------------------------
-------------------------------------------
-------------------------------------------  
-------------------------------------------
--------3-4-5-6-7-6-5-4--------------------

-------------------------------------------
-------------------------------------------
-----4-4-4-4-------------------------------
-----2-2-2-2----4-3------------------------
----------------2-1------------------------
-------------------------------------------

-------------------------------------------
-------------------------------------------
---------4---------------------------------
------4--2---------------------------------
------2------------------------------------
-------------3-4-5-6-7-6-5-4---------------

-------------------------------------------
-------------------------------------------
---------4---------------------------------
------3--2---------------------------------
------1------------------------------------
---------------3-4-5-6-7-6-5-4-------------

ESPERO QUE DISFRUTEN ESTA CANCION QUE A MI ME PARECE
LA MEJOR DE ESTE DISCO DE ESTA GRAN LEYENDA .
Suggest correction
Give kudos to tab author, rate the tab!
1 2 3 4 5
comments
print report bad tab
guest
You may want to rate the tab now too:
select rating
Wanna post a correction for this tab? Suggest correction