Oops, an error
Loading. Please wait.

Adicto A Tu Dolor Tab

version 2
version 2

Whole song

5 views 1 this week
no commentswrite comment
1 2 3 4 5
3 more votes to show rating
add to favorites
launch autoscroll
font size
0
reset
how to read this tab
guitar tuner
Autoscroll
slow
fast
+/-
esc
set tempo
stop
Help us to improve Ultimate-Guitar.com Take our survey!
×
ESTO ES EL INTRO Y LA PARTE DE 'DAME MAS DE LO KE DAS...'


E-3-3-4-5-6-5-4-4-|-3-3-4-5-6-5-4-4
A----------------------------------
D----------------------------------
G----------------------------------
B----------------------------------
e----------------------------------

E-3-3-4-5-6-5-4-4-|-3-3-4-5-6-5-4-4
A----------------------------------
D----------------------------------
G----------------------------------
B----------------------------------
e----------------------------------

ESTO ES EL CORO, ADICTO A TU DOLOR, DAME UN POCO POR FAVOR...

E--0/5--3-4-5---------0/5--3-4-5--------
A--2/7--------3-4-5-4*2/7--------3-4-5-4
D--2/7----------------2/7---------------
G---------------------------------------
B---------------------------------------
e---------------------------------------

E--0/5--3-4-5---------0/5--3-4-5--------       RIFF 1
A--2/7--------3-4-5-4*2/7--------3-4-5-4
D--2/7----------------2/7---------------
G---------------------------------------
B---------------------------------------
e---------------------------------------

Y HE AKI EL VERSO, ME TIENES MAL ACOSTUMBRADO...

E-------------
A--2-2-0-2/1/2
D--2-2-0-2/1/2
G-------------
B-------------
e-------------

E-------------
A--2-2-0-2/1/2
D--2-2-0-2/1/2
G-------------          RIFF 2
B-------------
e-------------

E-------------
A--2-2-0-2/1/2
D--2-2-0-2/1/2
G-------------
B-------------
e-------------

E-------------
A--2-2-0-2/1/2
D--2-2-0-2/1/2
G-------------
B-------------
e-------------


INTRO

RIFF 2

ADICTO A TU DOLOR
Me tienes mal acostumbrado
esa cara de felicidad
me tiene mucho más que desconcertado

INTRO

Dame más de lo que dás 
sólo quiero lágrimas muéstrame tus penas 
ábrete las venas

RIFF 1

Adicto a tu dolor 
dame un poco por favor
adicto a tu dolor 
ese dolor

RIFF2

Es una química infernal
a esto yo le llamo relación
estamos fabricados tal pa´ cual

INTRO

Dame más de lo que dás 
sólo quiero lagrimas muéstrame tu penas 
ábrete las venas

RIFF 1

Adicto a tu dolor 
dame un poco por favor
adicto a tu dolor 
ese dolor

(ESTO LO DICE VERA MIENTRAS SE TOCA EL SOLO DE BATERIA Y BAJO)

Cuando yo me siento viva
es cuando me encuentro herida 
cuando yo te doy placer 
yo me siento más mujer

RIFF 2

Ahora quieres cambiar la situación
quieres intercambio de papel
eso vas estar mucho muy cabrón
mucho muy cabrón

INTRO

Tú me diste la adicción 
ven y dame compasión
muéstrame tus penas ábrete las venas

RIFF 1

Adicto a tu dolor 
dame un poco por favor
adicto a tu dolor 
ese dolor 

CUALKIER DUDA A:
EL_GARIGOL_NO_HA_MUERTO@
Suggest correction
Give kudos to tab author, rate the tab!
1 2 3 4 5
comments
print report bad tab
guest
You may want to rate the tab now too:
select rating
Wanna post a correction for this tab? Suggest correction