Oops, an error
Loading. Please wait.

Piel Fiel Tab

35 views 1 this week
no commentswrite comment
1 2 3 4 5
3 more votes to show rating
add to favorites
launch autoscroll
font size
0
reset
how to read this tab
guitar tuner
×
Best way to learn
"Piel Fiel"
Autoscroll
slow
fast
+/-
esc
set tempo
stop
esta es una buenisima rola, para que la puedan sacar chido escuchen la rola

intro
e----------------------------------------------------------
b----------------------------------------------------------
g----------------------------------------------------------
d--9---9---9---9---9----9---7---7---7--7-9-7--7-7/9--------
a--7-x-7-x-7-x-7-x-7--x-7-x-5-x-5-x-5--5-7-5--5-5/7--------
E----------------------------------------------------------

todo el intro va en esto:


No me canso de mirarte
como obra de arte
quiero estar entre tus piernas
siempre y cuando sigan tiernas

Te veo ahora y puedo amarte
el futuro es cosa aparte
te prometo mi fidelidad
pero existe otra verdad


e-------------------------------------------------------
b-------------------------------------------------------
g-------------------------------------------------------
d-------------------------------------------------------
a-6-6-6-6-6-6-6-6-6-6-6-6--7-7-7-7-7-7------------------
E-4-4-4-4-4-4-4-4-4-4-4-4--5-5-5-5-5-5--2-2-5-5-4-4-3-3-

esto va aqui

Mientras tu piel
me sea fiel
yo sere fiel a tu piel

intro

Mientras tus senos sigan firmes
yo te firmo lo que quieras
mientras tu boca este jugosa
amaremos como fieras

Mientras tu piel
me sea fiel
yo sere fiel a tu piel

NOTA: PARA QUE LES SALGA BIEN LA CANCION ESCUCHENLA Y TOQUENLA
 ESTA MUY FACIL. LUEGO PUBLICO EL SOLO. ESPERO QUE ESTO LES AYUDE
Suggest correction
Give kudos to tab author, rate the tab!
1 2 3 4 5
comments
print report bad tab
guest
You may want to rate the tab now too:
select rating
Wanna post a correction for this tab? Suggest correction