Oops, an error
Loading. Please wait.

Crosses Tab

version 1
version 1

Interactive

67,382 views 51 this week
1 commentread comment
1 2 3 4 5
x 8
add to favorites
launch autoscroll
font size
0
reset
how to read this tab
guitar tuner
×
Best way to learn
"Crosses"
Autoscroll
slow
fast
+/-
esc
set tempo
stop
Tabbed by: The Fisherman
Email: imsoproudofit_iputmynameonit@hotmail.com

This is such an amazing song so i thought i'd try to tab it. Its hard to tab it but i'll
jus give a general idea of what he plays. As you can hear it's all finger picked and the
strings which he doesnt play anything on are open.

Tuning: Standard


you'll have to figure out the picking patterns yourself, it's not hard.
e|-------------------------------------------------------------------------|
B|-------------------------------------------------------------------------|
G|--7-7-6-6-4-4-4-4-6-6-7-7-9-11-9-7-9-11-9--------------------------------|
D|------------------------------------------------repeat a few times-------|
A|-------------------------------------------------------------------------|
E|-7-7-5-5-3-3-3-3-5-5-7-7-7-7-7-7-7-7-7-----------------------------------|

after a while 
e|-------------------------------------------------------------------------|
B|-------------------------------------------------------------------------|
G|---7-4-4-4---------------------------------------------------------------|
D|-------------------------------------------------------------------------|
A|-------------------------------------------------------------------------|
E|--7-0-3-3----------------------------------------------------------------|

remember this is jus the strings played you'll have to work out the real patterns
and everything, if you haven't got the cd you can listen to the song along with
some of his others on  www.myspace.com/josegonzalezmusic

Have fun!
Suggest correction
comments
print report bad tab
1 comment total.
0 reply
VictorBruno10 10 Aug 16, 2016 10:42 PM

I reccomend play this way too:

e|-------------------------------------------------------------------------|
B|-------------------------------------------------------------------------|
G|---7--7--6--6--4--4--4--4--6--6--7--7--9--11--11--9----------------------|
D|-----------------------------------------------------and repeat----------|
A|-------------------------------------------------------------------------|
E|-7--7--5--5--3--3--3--3--5--5--7--7--9--10--10--9------------------------|

guest
You may want to rate the tab now too:
select rating
Wanna post a correction for this tab? Suggest correction