Oops, an error
Loading. Please wait.

Crosses Tab

version 2
version 2

Interactive

23,141 views 18 this week
8 commentsread comments
1 2 3 4 5
x 9
add to favorites
launch autoscroll
font size
0
reset
how to read this tab
guitar tuner
Autoscroll
slow
fast
+/-
esc
set tempo
stop
Help us to improve Ultimate-Guitar.com Take our survey!
×
Difficulty
novice
-------------------------------------------------------------------------------
                            crosses - jose gonzalez
-------------------------------------------------------------------------------
Tabbed by: Barry Mc Carthy
Email:you tell me yours first.......

Tuning:standard
listen to the song a few times and play along eventually youll get the jist. if
u cant then ur crap and my tab writing capabilities have nothing to do with it
as im feckin marvellous.

e|------------------------------------------------------------------------------|
B|------------------------------------------------------------------------------|
G|--7--7--7----6----4--4--4--4----4--4---4----6----7---9--11---(a few times)----|
D|------------------------------------------------------------------------------|
A|------------------------------------------------------------------------------|
E|--7----7---5---5--3----3--3--3--3----3----s5--5--7---7---7--------------------|

at the end of the chorus
e|----------------------------------------------------------------------------------|
B|----------------------------------------------------------------------------------|
G|--7s--4--4----4-------------------------------------------------------------------|
D|----------------------------------------------------------------------------------|
A|----------------------------------------------------------------------------------|
E|--7---0----0--3-------------------------------------------------------------------|

mid thingy 1
e|----0------0------0-----0------0------0------0-------------------------------|
B|----0------0------0-----0------0------0------0-------------------------------|
G|-----------------------------------------------------------------------------|
D|--9---9--9--9s--7--7--7--7s--9---9--9--9s--7--7------------------------------|  X2
A|-----------------------------------------------------------------------------|
E|-----------------------------------------------------------------------------|


mid thingy 2..
e|-----0------0------0-----0-----0-----0-----0----------------------------------|
B|-----0------0------0-----0-----0-----0-----0----------------------------------|
G|------------------------------------------------------------------------------|
D|--9---9--9---9s--7--7--7--7s-4--4s-4--4s-2--2---------------------------------| X3
A|------------------------------------------------------------------------------|
E|------------------------------------------------------------------------------|
  "crosses....                .....so long.....             ....ago


mid thingy 3
e|----0------0------0-----0------0------0------0-------------------------------|
B|----0------0------0-----0------0------0------0-------------------------------|
G|-----------------------------------------------------------------------------|
D|--9---9--9--9s--7--7--7--7s--9---9--9--9---9--9--------back into song--------|
A|-----------------------------------------------------------------------------|
E|-----------------------------------------------------------------------------|


tada.....
Suggest correction
comments
print report bad tab
8 comments total. Showing first comments.
0 reply
$corpia_99 30 Jun 19, 2006 12:58 PM

Nice tab. Abit arrogant of you though, saying people are crap and you are amazing! And it's usually called a Bridge, Interlude or Break, not a 'mid thingy'.

0 reply
SSRI 10 Jun 27, 2006 10:16 PM

very nicely done, but it may be easier to hit that Gb in the begining (3rd string, 11th fret) on the second string, 7th fret so you don't have to reach as far

e|....--------------------|
B|....-----------------7--|
G|....----6----7---9------|
D|....--------------------|
A|....--------------------|
E|....--s5--5--7---7---7--|

0 reply
mlijeko 10 Jun 29, 2006 09:16 AM

you totally ignored that there's a D sound on every upbeat throughout nearly the whole song.. so it goes like

e~----------------|----------------|----------------|----------------
B~----------------|----------------|----------------|----------------
G~7---7---7---6---|4---4---4---4---|4---4---4---6---|7---9---11---9--
D~--0---0---0---0-|--0---0---0---0-|--0---0---0---0-|--0---0----0---0
A~----------------|----------------|----------------|----------------
E~7---------5-----|3---------3-----|3---------5-----|7---------------

and you really should learn some respect...
peace

guest
You may want to rate the tab now too:
select rating
Wanna post a correction for this tab? Suggest correction