Oops, an error
Loading. Please wait.

Crosses Tab

version 4
version 4

Interactive

15,584 views 24 this week
1 commentread comment
1 2 3 4 5
x 6
add to favorites
launch autoscroll
font size
0
reset
how to read this tab
guitar tuner
Autoscroll
slow
fast
+/-
esc
set tempo
stop
Help us to improve Ultimate-Guitar.com Take our survey!
×
Author
Difficulty
intermediate
As I don't have the song, this is only intro and verses. it is far more correct than
those submitted before me thoguh, and should be usefull nonetheless.


[Intro]

    . ,   . , . , . , . ,   . , . , . , . ,   . , . , . , . ,
E  |----|-----------------|-----------------|-----------------|
B  |--0-|---0---0---0---0-|---0---0---0---0-|---0---0---0---0-|
F# |--8-|---8---8---7---5-|---5---5---5---5-|---5---5---7---8-|
D  |----|-----0-----------|-0---0-------0---|-0---0-------0---|
A  |----|-----------------|-----------------|-----------------|
D  |--9-|---------7-----5-|---------5-----5-|---------7-----9-|

     . , . , . , . ,   . , . , . , . ,   . , . , . , . ,   . , . , . , . ,
E  |-----------------|-----------------|-----------------|-----------------|
B  |---0---0---0---0-|---0---0---0---0-|---0---0---0---0-|---0---0---0---0-|
F# |---10--12--10--8-|---8---8---7---5-|---5---5---3---8-|---8---8---0---8-|
D  |-0---0---0---0---|-0---0-----------|-0---0-------0---|-0---0-------0---|
A  |-----------------|-----------------|-----------------|-----------------|
D  |---------------9-|---------7-----5-|---------5-----9-|---------7-----9-|


[Verses]

     . , . , . , . ,   . , . , . , . ,   . , . , . , . ,   . , . , . , . ,
E  |-----------------|-----------------|-----------------|-----------------|
B  |---0---0---0---0-|---0---0---0---0-|---0---0---0---0-|---0---7---0---0-|
F# |---8---8---7---5-|---5---5---5---5-|---5---5---7---8-|---10--8---10--8-|
D  |-----0-----------|-0---0-------0---|-0---0-------0---|-0---0---0---0---|
A  |-----------------|-----------------|-----------------|-----------------|
D  |---------7-----5-|---------5-----5-|---------7-----9-|---------9-----9-|

     . , . , . , . ,   . , . , . , . ,   . , . , . , . ,   . , . , . , . ,
E  |-----------------|---0-------------|-----------------|---0-------------|
B  |---0---0---0---0-|---0---0---0---0-|---0---0---0---0-|---0---0---0---0-|
F# |---8---8---7---5-|---5---5---5---5-|---5---5---7---8-|---8---8---8---8-|
D  |-0---0-----------|-----0-------0---|-0---0-------0---|-0---0---0---0---|
A  |-----------------|-----------------|-----------------|-----------------|
D  |---------7-----5-|---------5-----5-|---------7-----9-|---------9---9---|

     . , . , . , . ,   . , . , . , . ,   . , . , . , . ,   . , . , . , . ,
E  |-----------------|---0-------------|---0-------------|-----------------|
B  |---0---0---0---0-|---0---0---0---0-|---0---0---0---0-|---0---7---0---0-|
F# |---8---8---7---5-|---5---5---5---5-|---5---5---7---8-|---10--8---10--8-|
D  |-----0-----------|-0---0-------0---|-0---0-------0---|-0---0---0---0---|
A  |-----------------|-----------------|-----------------|-----------------|
D  |---9-----7-----5-|---------5-----5-|---------7-----9-|-----------------|

     . , . , . , . ,   . , . , . , . ,   . , . , . , . ,   . , . , . , . ,
E  |-----------------|---0-------------|-----------------|-----------------|
B  |---0---0---0---0-|---0---0---0---0-|---0---0---0---0-|---0-------------|
F# |---8---8---7---5-|---5---5---5---5-|---5---5---3---5-|---5-------------|
D  |-----0-----------|-0---0-------0---|-0---0-------0---|-0---------0-----|
A  |-----------------|-----------------|---------0-----2-|-------0-----2-2-|
D  |---9-----7-----5-|---------5-----5-|-----------------|---------5-----2-|



 
Suggest correction
comments
print report bad tab
1 comment total.
0 reply
Tankengine 10 Sep 05, 2007 06:48 AM

Totally Wrong... bass notes in the wrong place at times, listen to the song!

guest
You may want to rate the tab now too:
select rating
Wanna post a correction for this tab? Suggest correction