Oops, an error
Loading. Please wait.

Crosses Tab

version 6
version 6

Interactive

253,649 views 603 this week
8 commentsread comments
1 2 3 4 5
x 94
add to favorites
launch autoscroll
font size
0
reset
how to read this tab
guitar tuner
Autoscroll
slow
fast
+/-
esc
set tempo
stop
Help us to improve Ultimate-Guitar.com Take our survey!
×
Difficulty
intermediate
Title: Crosses
Artist: Jose Gonzalez
Tabbed by: Pierz Newton-John (pierznj@gmail.com)

Tuning: D A D F# B E


E |-----------------|-----------------|-----------------|
B |-0---0---0---0---|-0---0---0---0---|-0---0---0---0---|
F#|-8---8---8---7---|-5---5---5---5---|-5---5---5---7---|
D |---0---0-------0-|---0---0-------0-|---0---0-------0-|
A |-----------------|-----------------|-----------------|
D |-9---------7-----|-5---------5-----|-5---------7-----|


E |-----0-------0---|-----------------|-----------------|-----------------|
B |-0---0---7---0---|-0---0---0---0---|-0---0---0---0---|-0---0---0---0---|
F#|-8-------8-------|-8---8---8---7---|-5---5---5---5---|-5---5---0---3---|
D |---0---0---0---0-|---0---0-------0-|---0---0-------0-|---0---0-------0-|
A |-----------------|-----------------|-----------------|-----------------|
D |-9---------------|-----9-----7-----|-5---------5-----|-5---------5-----|


E |-----------------|-----------------|-----------------|-----------------|
B |-0---0---0---0---|-0---0---0---0---|-0---0---0---0---|-0---0---0---0---|
F#|-0---0---0---0---|-8---8---8---7---|-5---5---5---5---|-5---5---5---7---|
D |-0-0---0-------0-|---0---0-------0-|---0---0-------0-|---0---0-------0-|
A |-----------------|-----------------|-----------------|-----------------|
D |-9---------7-----|-9---------7-----|-5---------5-----|-5---------7-----|
                          Don't you             know that I'll be around to

E |-----0-------0---|-----------------|-----0-----------|-----------------|
B |-0---0---7---0---|-0---0---0---0---|-0---0---0---0---|-0---0---0---0---|
F#|-8-------8-------|-8---8---8---7---|-5-------5---5---|-5---5---5---7---|
D |---0---0---0---0-|---0---0-------0-|---0---0-------0-|---0---0-------0-|
A |-----------------|-----------------|-----------------|-----------------|
D |-9---------------|-----9-----7-----|-5---------5-----|-5---------7-----|
    guide you                 through your      weakest moments to leave them

E |-----0-----------|-----0-----------|-----0-----------|-----0-----------|
B |-0---0---0---0---|-0---0---0---0---|-0---0---0---0---|-0---0---0---0---|
F#|-8-------8---8---|-8-------8---7---|-5-------5---5---|-5-------5---7---|
D |---0---0---------|---0---0-------0-|---0---0-------0-|---0---0-------0-|
A |-----------------|-----------------|-----------------|-----------------|
D |-9---------9---9-|-----9-----7-----|-5---------5-----|-5---------7-----|
        behind you          returning   nightmares                only  

E |-----0-------0---|-----------------|-----0-----------|-----------------|
B |-0---0---7---0---|-0---0---0---0---|-0---0---0---0---|-0---0---0---0---|
F#|-8-------8-------|-8---8---8---7---|-5-------5---5---|-5---5---0---3---|
D |---0---0---0---0-|---0---0-------0-|---0---0-------0-|---0---0-------0-|
A |-----------------|-----------------|-----------------|-----------------|
D |-9---------------|-----9-----7-----|-5---------5-----|-5---------5-----|
            shadows         we'll cast some light and you'll be alright

E |-----------------|-----0-----------|-----------------|-----------------|
B |-0---0---0---0---|-----0---3---0---|-0---0---0---0---|-0---0---0---0---|
F#|-0---0---0---0---|---------0---0---|-3---0---0---0---|-0---0---0---0---|
D |-0-0---0-------0-|---0---0---0---0-|---0---0-------0-|---0---0---0---0-|
A |-----------9-----|-2---------------|-----------4-----|-5---------------|
D |-9---------9-----|-2---------------|-----------4-----|-5---------------|
                          cast some light and you'll be alright     for now

E |-----------------|-----------------|-----------------|-----------------|
B |-0---0---0---0---|-0---0---0---0---|-0---0---0---0---|-0---0---0---0---|
F#|-0---0---0---0---|-8---8---8---7---|-5---5---5---5---|-5---5---5---7---|
D |---0---0---------|---0---0-------0-|---0---0-------0-|---0---0-------0-|
A |-----------0-----|-----------------|-----------------|-----------------|
D |-----------0-----|-9---------7-----|-5---------5-----|-5---------7-----|
                               Crosses      all over          heavy on

E |-----0-------0---|-----------------|-----0-----------|-----------------|
B |-0---0---7---0---|-0---0---0---0---|-0---0---0---0---|-0---0---0---0---|
F#|-8-------8-------|-8---8---8---7---|-5-------5---5---|-5---5---5---7---|
D |---0---0---0---0-|---0---0-------0-|---0---0-------0-|---0---0-------0-|
A |-----------------|-----------------|-----------------|-----------------|
D |-9---------------|-----9-----7-----|-5---------5-----|-5---------7-----|
      your shoulders        the sirens      inside you        waiting to

E |-----0-----------|-----------------|-----------------|-----------------|
B |-0---0---0---0---|-0---0---0---0---|-0---0---0---0---|-0---0---0---0---|
F#|-8-------8---8---|-8---8---8---7---|-5---5---5---5---|-5---5---5---7---|
D |---0---0---------|-------0-------0-|---0---0-------0-|---0---0-------0-|
A |-----------------|-----------------|-----------------|-----------------|
D |-9---------9---9-|---9-9-----7-----|-5---------5-----|-5---------7-----|
        step forward        disturbing        silence             darkens

E |-----0-------0---|-----------------|-----0-----------|-----------------|
B |-0---0---7---0---|-0---0---0---0---|-0---0---0---0---|-0---0---0---0---|
F#|-8-------8-------|-8---8---8---7---|-5-------5---5---|-5---5---0---3---|
D |---0---0---0---0-|---0---0-------0+|---0---0-------0-|---0---0-------0-|
A |-----------------|-----------------|-----------------|-----------------|
D |-9---------------|-----9-----7-----|-5---------5-----|-5---------5-----|
        your sight.         We'll cast some light and you'll be alright

E |-----------------|-----0-----------|-----------------|-----------------|
B |-0---0---0---0---|-----0---3---0---|-0---0---0---0---|-0---0---0---0---|
F#|-0---0---0---0---|---------0---0---|-3---0---0---0---|-0---0---0---0---|
D |-0-0---0-------0-|---0---0---0---0-|---0---0-------0-|---0---0---0---0-|
A |-----------9-----|-2---------------|-----------4-----|-5---------------|
D |-9---------9-----|-2---------------|-----------4-----|-5---------------|
                          cast some light and you'll be alright     for now 

E |-----------------|-------0---------|-----0-------0---|-----0---0---0---|
B |-0---0---0-------|---0-----0-----0-|-0---0---0---0---|-0---0---0---0---|
F#|-0---0---0---0---|-----8-----8-----|---8---8-------8-|---8---8-------8-|
D |---0---0---5-----|-9-----------9---|-7---------7-----|-9---------9-----|
A |-----------------|-----------------|-----------------|-----------------|
D |-----------------|-----------------|-----------------|-----------------|


E |-----0---0---0---|-----0---0---0---|-----0---0---0---|-----0---0---0---|
B |-0---0---0---0---|-0---0---0---0---|-0---0---0---0---|-0---0---0---0---|
F#|---8---8---8---8-|---8---8---8---8-|---8---8-------8-|---8---8-------8-|
D |-7---------7-----|-9---------9-----|-7---------7-----|-----------------|
A |-----------------|-----------------|-----------------|-9---------9-----|
D |-----------------|-----------------|-----------------|-----------------|
                      Crosses     all over            the boulevard

E |-----0---0---0---|-----0---0---0---|-----0---0---0---|-----0---0---0---|
B |-----0---0---0---|-0---0---0---0---|-0---0---0---0---|-0---0---0---0---|
F#|---8---8-------8-|---8---8---8---8-|---8---8-------8-|---8---8-------8-|
D |-----------------|-9---------9-----|-7---------7-----|-----------------|
A |-7---------7-----|-----------------|-----------------|-9---------9-----|
D |-----------------|-----------------|-----------------|-----------------|
                      Crosses     all over            the boulevard

E |-----0---0---0---|-----0---0---0---|-----0---0---0---|-----0---0---0---|
B |-----0---0---0---|-0---0---0---0---|-0---0---0---0---|-0---0---0---0---|
F#|---8---8-------8-|---8---8---8---8-|---8---8-------8-|---8---8-------8-|
D |-----------------|-9---------9-----|-7---------7-----|-----------------|
A |-7---------7-----|-----------------|-----------------|-9---------9-----|
D |-----------------|-----------------|-----------------|-----------------|
                      Crosses     all over            the boulevard

E |-----0---0---0---|-----0---0---0---|-----0---0---0---|-----0---0---0---|
B |-----0---0---0---|-0---0---0---0---|-0---0---0---0---|-0---0---0---0---|
F#|---8---8---8---8-|---8---8---8---8-|---8---8-------8-|---8---8---8---8-|
D |-------------9---|-9---------9-----|-7---------7-----|-9---------9-----|
A |-7---------------|-----------------|-----------------|-----------------|
D |-----------------|-----------------|-----------------|-----------------|
                      Crosses     all over            the boulevard

E |-----0---0-0-----|-----0-----------|-----0-----------|-----------------|
B |-0---0---0-0-----|-0---0---0---0---|-0---0---0---0---|-0---0---0---0---|
F#|---8---8---0-----|-8-------8---7---|-5-------5---5---|-5---5---5---7---|
D |-9-----------0-0-|---0---0-------0-|---0---0-------0-|---0---0-------0-|
A |-------------0-0-|-----------------|-----------------|-----------------|
D |-------------0-0-|-9---------7-7---|-5---------5-----|-5---------7-----|
                            The streets outside your window        over

E |-----0-------0---|-----------------|-----------------|-----0-----------|
B |-0---0---7---0---|-0---0---0---0---|-0---0---0---0---|-0---0---0---0---|
F#|-8-------8-------|-8---8---8---7---|-5---5---5---5---|-5-------5---7---|
D |---0---0---0---0-|---0---0-------0-|---0---0---------|---0---0-------0-|
A |-----------------|-----------------|-----------------|-----------------|
D |-9---------------|-----9-----7-----|-5---------5---5-|-5---------7-----|
          flooded             people          staring         they know you've
  
E |-----0-------0---|-0---------------|-----0-----------|-----0-----------|
B |-0---0---0---0---|-0---0---0---0---|-0---0---0---0---|-0---0---0---0---|
F#|-8-------8-------|-----8---8---7---|-5-------5---5---|-5-------5---7---|
D |---0---0---------|-------0-------0-|---0---0---------|---0---0-------0-|
A |-----------------|-----------------|-----------------|-----------------|
D |-9---------9---9-|---9-9-----7-7---|-5---------5---5-|-5---------7-----|
        been broken           repeatedly    reminded          by the looks on

E |-----0-------0---|-----------------|-----0-----------|-----------------|
B |-0---0---7---0---|-0---0---0---0---|-0---0---0---0---|-0---0---0---0---|
F#|-8-------8-------|-8---8---8---7---|-5-------5---5---|-5---5---0---3---|
D |---0---0---0---0-|---0---0-------0-|---0---0-------0-|---0---0-------0-|
A |-----------------|-----------------|-----------------|-----------------|
D |-9---------------|-----9-----7-----|-5---------5-----|-5---------5-----|
        their faces       ignore them tonight and you'll be alright

E |-----------------|-----0-----------|-----------------|-----------------|
B |-0---0---0---0---|-----0---3---0---|-0---0---0---0---|-0---------------|
F#|-0---0---0---0---|---------0---0---|-3---0---0---0---|-0---------------|
D |-0-0---0-------0-|---0---0---0---0-|---0---0-------0-|-0---------------|
A |-----------9-----|-2---------------|-----------4-----|-5---------------|
D |-9---------9-----|-2---------------|-----------4-----|-5---------------|
                          cast some light and you'll be alright
Suggest correction
comments
print report bad tab
8 comments total. Showing first comments.
+11 reply
Wuffer 10 Jun 17, 2007 11:03 PM

This is pretty much the definitive tab for anybody to use that would like to learn this song. There are a few missing or misplaced bass notes during the verses, but Jose switches this up all the time that it will still sound great.

Anyone wanting to learn this song, look no further, this tab is freaking great. Thanks Pierz.

+5 reply
princey44 21 Aug 19, 2007 10:44 AM

thanks so much Pierz this is awesome stuff

+3 reply
F# 11th w3 188 Nov 15, 2009 03:55 PM

Don't know if it's perfect in the literal sense of the word, but this must be at least near perfection. This tab saved me a lot of work and probably more than hundred listening sessions :-)
Great tab!!

guest
You may want to rate the tab now too:
select rating
Wanna post a correction for this tab? Suggest correction