Oops, an error
Loading. Please wait.

Cycling Trivialities Tab

version 1
version 1

Whole song

Interactive

31,230 views 54 this week
5 commentsread comments
1 2 3 4 5
x 6
add to favorites
launch autoscroll
font size
0
reset
how to read this tab
guitar tuner
Autoscroll
slow
fast
+/-
esc
set tempo
stop
Help us to improve Ultimate-Guitar.com Take our survey!
×
Author
Difficulty
Capo
novice
2nd fret
Tuning Low to High - D A D F# B e
Capo on 2nd fret

[Verse and Chorus]
e|--------------------------------------------------|
B|------0-----------0-----------0-----------0-------|
G|----0-----0-----0-----0-----0-----0-----0-----0---|
D|--0-----0-----0-----0-----0-----0-----0-----0-----|
A|--------------------------------------------------|
E|2-----------2-----------2-----------4-------------|

e|--------------------------------------------------|
B|------2-----------2-----------2-----------2p0-----|
G|----0-----0-----0-----0-----0-----0-----0-----0---|
D|--0-----0-----0-----0-----0-----0-----0-----------|
A|--------------------------------------------------|
E|0-----------0-----------0-----------0-------------|(x3)

e|--------------------------------------------------|
B|------0-----------0-----------0-----------0-------|
G|----0-----0-----0-----0-----0-----0-----0-----0---|
D|--0-----0-----0-----0-----0-----0-----0-----0-----|
A|--------------------------------------------------|
E|2-----------2-----------2-----------4-------------|

e|------------------------------------0-------------|
B|------2-----------2-----------2-----------2p0-----|
G|----0-----0-----0-----0-----0-----0-----0-----0---|
D|--0-----0-----0-----0-----0-----0-----0-----------|
A|--------------------------------------------------|
E|0-----------0-----------0-------------------------|

[Bridge]
e|--------------------------------------------------|
B|------0-----------0-----------0-----------0-------|
G|----0-----0-----0-----0-----0-----0-----0-----0---|
D|--0-----0-----0-----0-----0-----0-----0-----0-----|
A|7-----------5-----------4-----------2-------------|
E|--------------------------------------------------|

e|--------------------------------------------------|
B|------0-----------0-----------0-----------0-------|
G|----0-----0-----0-----0-----0-----0-----0-----0---|
D|--0-----0-----0-----0-----0-----0-----0-----0-----|
A|7-----------7-----------7-----------7-------------|
E|--------------------------------------------------|

e|--------------------------------------------------|
B|------0-----------0-----------0-----------0-------|
G|----0-----0-----0-----0-----0-----0-----0-----0---|
D|--0-----0-----0-----0-----0-----0-----0-----0-----|
A|5-----------4-----------2-----------0-------------|
E|--------------------------------------------------|

e|--------------------------------------------------|
B|------0-----------0-----------0-----------0-------|
G|----0-----0-----0-----0-----0-----0-----0-----0---|
D|--0-----0-----0-----0-----0-----0-----0-----0-----|
A|7-----------7-----------7-----------7-------------|
E|--------------------------------------------------|

e|--------------------------------------------------|
B|------0-----------0-----------0-----------0-------|
G|----0-----0-----0-----0-----0-----0-----0-----0---|
D|--0-----0-----0-----0-----0-----0-----0-----0-----|
A|5-----------4-----------2-----------0-------------|
E|--------------------------------------------------|

e|--------------------------------------------------|
B|------0-----------0-----------0-----------0-------|
G|----0-----0-----0-----0-----0-----0-----0-----0---|
D|--0-----0-----0-----0-----0-----0-----0-----0-----|
A|7-----------7-----------7-----------7-------------|
E|--------------------------------------------------|

e|--------------------------------------------------|
B|------0-----------0-----------0-----0-----0-------|
G|----0-----0-----0-----0-----0-----0-----0-----0---|
D|--0-----0-----0-----0-----0-----0-----0-----0-----|
A|7-----------7-----------7-------------------------|
E|--------------------------------------------------|
Suggest correction
comments
print report bad tab
5 comments total. Showing first comments.
-1 reply
riazdocrat 145 Jul 31, 2008 04:29 AM

this is nothing like the song, a lot of the open notes need to be changed, the bass line isnt too bad but all the notes in between are off.

-1 reply
tews 10 Feb 08, 2009 09:37 AM

--------------------------------------------------|
------0-----------0-----------0-----------0-------|
----3--3--------3--3--------3--3--------0--0------|
--0-----0-----0-----0-----0-----0-----0-----0-----|
--------------------------------------------------|
2-----------2-----------2-----------4-------------|

--------------------------------------------------|
------2-----------2-----------2-----------2p0-----|
----3--3--------3--3--------3--3--------3-----3---|
--0-----0-----0-----0-----0-----0-----0-----------|
--------------------------------------------------|
0-----------0-----------0-----------0-------------|x3

-1 reply
tews 10 Feb 08, 2009 09:37 AM

--------------------------------------------------|
------0-----------0-----------0-----------0-------|
----3--3--------3--3--------3--3--------0--0------|
--0-----0-----0-----0-----0-----0-----0-----0-----|
--------------------------------------------------|
2-----------2-----------2-----------4-------------|

--------------------------------------------------|
------2-----------2-----------2-----------2p0-----|
----3--3--------3--3--------3--3--------3-----3---|
--0-----0-----0-----0-----0-----0-----0-----------|
--------------------------------------------------|
0-----------0-----------0-----------0-------------|x3

guest
You may want to rate the tab now too:
select rating
Wanna post a correction for this tab? Suggest correction