Oops, an error
Loading. Please wait.

Deadweight On Velveteen Tab

version 1
version 1

Whole song

Interactive

5,061 views 3 this week
no commentswrite comment
1 2 3 4 5
please rate
add to favorites
launch autoscroll
font size
0
reset
how to read this tab
guitar tuner
Tab Pro tools
  • play this tab
  • loop segment
  • change instrument
  • show fretboard
  • metronome
×
Best way to learn
"Deadweight On Velveteen"
Autoscroll
slow
fast
+/-
esc
set tempo
stop
Contributor
Difficulty
Capo
intermediate
1st fret
-----------------------------------------------------------------------------
06. Deadweight on velveteen
-----------------------------------------------------------------------------
Tabbed by: Arto Schürch
Email:     arto_schuerch@gmx.ch



Tuning: D,A,D,F#,B,e
Capo on 1st fret
tabbed relative to capo

[Intro 1]: freely

e |---(0)(0)..------(0)(0)..---------(0)(0)..------------------0------------|
B (0)..0--0...--(0)..0--0...2-02-(0)..0--0...---0...0}-0...--2-----2--------|
F#|0...----------0...--------5--5-0...----------0...0}-0...5-----5----------|
D |-------------------------------------------------------------------------|
A |----7--6...6^4----7--6...----------7--6...6^4----7}-6...-----------------|
D |4...----------4...-------------4...----------4...-----------------4...---|


[Intro 2]: a tempo

   1   &   2   &   3   &   4   &   
e |--------------------------------|
B |----2-------2-------2-------2---|
F#|0-------0-------0-------0-------|   4x
D |--------------------------------|
A |--------------------------------|
D |--------------------------------|

(these two lines form also the [interlude] and [outro] where sometimes * is 
played as a 2 and the sixteenth note (*2) is added soon after)

   1   &   2   &   3   &   4   &    1   &   2   &   3   &   4   &
e |----0-----------------------0---|--------------------------------|
B |----2-------2---0 ^ 2-------2---|----2---0 ^ 2-------0*--(*2)2---|
F#|0-------0-------0-------0-------|0-------0-------0-------0-------|   3x
D |--------------------------------|--------------------------------|
A |--------------------------------|--------------------------------|
D |--------------------------------|--------------------------------|

   1   &   2   &   3   &   4   &    1   &   2   &   3   &   4   &
e |----0-----------------------0---|--------------------------------|
B |----2-------2---0 ^ 2-------2---|----0-------2-------2---0 ^ 2---|
F#|0-------0-------0-------0-------|0-------0---0---0-------0-------|
D |--------------------------------|--------------------------------|
A |--------------------------------|--------------------------------|
D |--------------------------------|--------------------------------|

   1   &   2   &   3   &   4   &   
e |--------------------------------|
B |----2-------2-------2-------2---|
F#|0-------0-------0-------0-------|   2x
D |--------------------------------|
A |--------------------------------|
D |--------------------------------|


Verses:

   1   &   2   &   3   &   4   &   
e |--------------------------------|
B |----2-------2-------2-------2---|
F#|0-------0-------0-------0-------|   8x
D |--------------------------------|
A |--------------------------------|
D |--------------------------------|


Chorus:

   1   &   2   &   3   &   4   &    1   &   2   &   3   &   4   &
e |--------0-----------------------|--------0-----------------------|
B |----2-------2-------2---0-------|----2-------2-------2---0-------|
F#|0-------0-------0-------0---0---|0-------0-------0-------0---0---|
D |--------------------------------|--------------------------------|
A |------------------------0-------|2-----------------------0-------|
D |0-------------------------------|--------------------------------|

   1   &   2   &   3   &   4   &    1   &   2   &   3   &   4   &
e |--------------------------------|--------------------------------|
B |----2---0 ^ 2-------2-------2---|----2-------2-------2-------2---|
F#|0-------0-------0-------0-------|0-------0-------0-------0-------|   1x/2x
D |--------------------------------|--------------------------------|
A |--------------------------------|--------------------------------|
D |--------------------------------|--------------------------------|


Last Chorus:

1st time:

   1   &   2   &   3   &   4   &    1   &   2   &   3   &   4   &
e |--------0-----------------------|--------0-----------------------|
B |----2-------2-------2---0-------|----2-------2-------2---0-------|
F#|0-------0-------0-------0---0---|0-------0-------0-------0---0---|
D |--------------------------------|--------------------------------|
A |------------------------0-------|2-----------------------0-------|
D |0-------------------------------|--------------------------------|

   1   &   2   &   3   &   4   &    1   &   2   &   3   &   4   &
e |--------------------------------|--------------------------------|
B |----2---0 ^ 2-------2-------2---|----2---0 ^ 2-------2-------2---|
F#|0-------0-------0-------0-------|0-------0-------0-------0-------|
D |--------------------------------|--------------------------------|
A |--------------------------------|--------------------------------|
D |--------------------------------|--------------------------------|

2nd time:

   1   &   2   &   3   &   4   &    1   &   2   &   3   &   4   &
e |--------0-----------------------|--------0-----------------------|
B |----2-------2-------2---0-------|----2-------2-------2---0-------|
F#|0-------0-------0-------0---0---|0-------0-------0-------0---0---|
D |--------------------------------|--------------------------------|
A |------------------------0-------|2-----------------------0-------|
D |0-------------------------------|--------------------------------|

   1   &   2   &   3   &   4   &    1   &   2   &   3   &   4   &
e |--------------------------------|--------------------------------|
B |----2---0 ^ 2-------2---0 ^ 2---|----2---0 ^ 2-------2---0 ^ 2---|
F#|0-------0-------0-------0-------|0-------0-------0-------0-------|
D |--------------------------------|--------------------------------|
A |--------------------------------|--------------------------------|
D |--------------------------------|--------------------------------|



3rd time and 4th time:

   1   &   2   &   3   &   4   &    1   &   2   &   3   &   4   &
e |--------0-----------------------|--------0-----------------------|
B |----2-------2-------2---0-------|----2-------2-------2---0-------|
F#|0-------0-------0-------0---0---|0-------0-------0-------0---0---|
D |--------------------------------|--------------------------------|
A |------------------------0-------|2-----------------------0-------|
D |0-------------------------------|--------------------------------|

   1   &   2   &   3   &   4   &    1   &   2   &   3   &   4   &
e |--------0-----------------------|--------0-----------------------|
B |----2-------2-------2---0 ^ 2---|----2-------2-------2---0 ^ 2---|
F#|0-------0-------0-------0-------|0-------0-------0-------0-------|
D |--------------------------------|--------------------------------|
A |--------------------------------|--------------------------------|
D |--------------------------------|--------------------------------|

5th time:

   1   &   2   &   3   &   4   &    1   &   2   &   3   &   4   &
e |--------0-----------------------|--------0-----------------------|
B |----2-------2-------2---0-------|----2-------2-------2---0-------|
F#|0-------0-------0-------0---0---|0-------0-------0-------0---0---|
D |--------------------------------|--------------------------------|
A |------------------------0-------|2-----------------------0-------|
D |0-------------------------------|--------------------------------|

   1   &   2   &   3   &   4   &    1   &   2   &   3   &   4   &
e |--------------------------------|--------------------------------|
B |----2---0-----------2-------2---|----2-------2-------2-------2---|
F#|0-------0-------0-------0-------|0-------0-------0-------0-------|   3x
D |--------------------------------|--------------------------------|
A |--------------------------------|--------------------------------|
D |--------------------------------|--------------------------------|

then to outro...
comments
We did not receive enough feedback on this tab! Please rate:
print report bad tab
1 2 3 4 5
I want to post or [tab]
guest
You may want to rate the tab now too:
select rating
Please do not post tabs as comments. Select "correction" instead!