Oops, an error
Loading. Please wait.

Down The Line Tab

version 2
version 2

Whole song

Interactive

64,518 views 153 this week
5 commentsread comments
1 2 3 4 5
accurate
x 12
add to favorites
launch autoscroll
font size
0
reset
how to read this tab
guitar tuner
Tab Pro tools
  • play this tab
  • loop segment
  • change instrument
  • show fretboard
  • metronome
Autoscroll
slow
fast
+/-
esc
set tempo
stop
Contributor
Difficulty
Tuning
intermediate
D A D G B E
Artist: José González
Song: Down The Line
Album: In Our Nature

Tuning: D A D G B E

Key:
^ down stroke
v up stroke
T continue the down stroke with a tap on the guitar body 


Main theme
      T       T       T       T
 ^  v ^ v ^ v ^ v ^ v ^ v ^ v ^ v
|---0-0-0-0-0-0-0-0-0-0-0-0-0-0-0-|--0--0-0-0-0-0-0-0-0-0-0-0-0-0-0-|
|---5-5-5-5-5-5-5-5-5-5-5-5-5-5-5-|--5--5-5-5-5-5-5-3-3-3-3-3-3-3-3-|
|-----0---0---0---0---0---0-0-0-0-|-----0---0---0---0---0---0-0-0-0-|
|-0---0-------0-------0-----0-0-0-|-0---0-------0-------0-----0-0-0-|
|-7-------------------------7-7-7-|-5-------------------------5-5-5-|
|---------------------------------|---------------------------------|

|---0-0-0-0-0-0-0-0-0-0-0-0-0-0-0-|---0-0-0-0-0-0-0-0-0-0-0-0-0-0-0-|
|---5-5-5-5-5-5-5-5-5-5-5-5-5-5-5-|---5-5-5-5-5-5-5-3-3-3-3-3-0-0-0-|
|-----0---0---0---0---0---0---0---|-----0---0---0---0---0---0-0-0-0-|
|-0---0-------0-------0-------0---|-0---0-------0-------0-----0-0-0-|
|-4-------------------------------|-3-------------------------0-0-0-|
|---------------------------------|---------------------------0-0-0-|

Variation 1
|---7-7-7-7-7-7-7-7-7-7-7-7-7-7-7-|---7-7-7-7-7-7-7-7-7-7-7-7-7-7-7-|
|---5-5-5-5-5-5-5-5-5-5-5-5-5-5-5-|---5-5-5-5-5-5-5-5-5-5-5-5-5-5-5-|
|-----0---0---0---0---0---0-0-0-0-|-----0---0---0---0---0---0-0-0-0-|
|-0---0-------0-------0-----0-0-0-|-0---0-------0-------0-----0-0-0-|
|-7-------------------------7-7-7-|-5-------------------------5-5-5-|
|---------------------------------|---------------------------------|

|---7-7-7-7-7-7-7-7-7-7-7-7-7-7-7-|---7-7-7-7-7-7-7-5-5-5-5-5-0-0-0-|
|---5-5-5-5-5-5-5-5-5-5-5-5-5-5-5-|---5-5-5-5-5-5-5-5-5-5-5-5-0-0-0-|
|-----0---0---0---0---0---0---0---|-----0---0---0---0---0---0-0-0-0-|
|-0---0-------0-------0-------0---|-0---0-------0-------0-----0-0-0-|
|-4-------------------------------|-3-------------------------0-0-0-|
|---------------------------------|---------------------------0-0-0-|

Variation 2
|---------------------------------|---------------------------------|
|-----5-------5-------5-------5---|-----5-------5-------3-------3---|
|-----0---0---0---0---0---0---0---|-----0---0---0---0---0---0---0---|
|---------------------------------|---------------------------------|
|-7-------------------------------|-5-------------------------------|
|---------------------------------|---------------------------------|

|---------------------------------|---------------------0-0-x-0-0-0-|
|-----5-------5-------5-------5---|-----5-------5-------0-0-x-0-0-0-|
|-----0---0---0---0---0---0---0---|-----0---0---0---0---0-0-x-0-0-0-|
|---------------------------------|---------------------0-0-x-0-0-0-|
|-4-------------------------------|-3-------------------3-3-x-0-0-0-|
|---------------------------------|---------------------0-0-x-0-0-0-|

|---------------------0-0-0-0-0-0-|
|-----5-------5-------8-8-8-0-0-0-|
|-----0---0---0---0---0-0-0-0-0-0-|
|---------------------0-0-0-0-0-0-|
|-7-------------------------0-0-0-|
|---------------------------0-0-0-|
comments
print report bad tab
5 comments total. Showing first comments.
0 reply
jamminjohn wrote on November 24 2007, 05:31 pm

Found this video
http://www.youtube.com/watch?v=gqD4OkEo9UQ

0 reply
jamminjohn wrote on December 15 2007, 12:35 pm

The rhytm is not right in the version I submitted.
It should be backbeat rather than on beat.


Main theme
^ ^ v ^ v ^ v ^ v ^ v ^ v ^ v
|-----0-0-0-0-0-0-0-0-0-0-0-0-0-0-|-----0-0-0-0-0-0-0-0-0-0-0-0-0-0-|
|-----5-5-5-5-5-5-5-5-5-5-5-5-5-5-|-----5-5-5-5-5-5-3-3-3-3-3-3-3-3-|
|-----0---0---0---0---0---0-0-0-0-|-----0---0---0---0---0---0-0-0-0-|
|-0---0-------0-------0-----0-0-0-|-0---0-------0-------0-----0-0-0-|
|-7-------------------------7-7-7-|-5-------------------------5-5-5-|
|---------------------------------|---------------------------------|



José seems to tap on the guitar body on the backbeat down strokes, I think.

0 reply
salo wrote on March 7 2008, 08:05 pm

Ah this tabb is great ! Perfect it is. I do rate this 5 star! well earned!

I want to post or [tab]
guest
You may want to rate the tab now too:
select rating
Please do not post tabs as comments. Select "correction" instead!