Oops, an error
Loading. Please wait.

Hand On Your Heart Tab

version 1
version 1

Whole song

47,752 views 45 this week
5 commentsread comments
1 2 3 4 5
excellent!
x 19
add to favorites
launch autoscroll
font size
0
reset
how to read this tab
guitar tuner
Autoscroll
slow
fast
+/-
esc
set tempo
stop
Help us to improve Ultimate-Guitar.com Take our survey!
×
Excuse Mr. and Miss,my Englisch is not so god.This is my first tab and its 100% correct
i have it from the SwedeTab.I listen Jose Gonzalez my first time on the birthsday by my
Daugther.She is 2 months and love Jose Gonzalez to.I play Heartbeats between my Head its
a fine Song and it is better as the original from The Knife.


Sänger:Jose Gonzalez
Lied: Hand On Your Heart
Album: Stay In The Shade EP

Tuning:DADDAB


Intro:

  G5add#4                    
|-----------------|
|-------4---------|
|-----0---0-------| 8x
|---0-------0---0-|
|-----------------|
|-5-----------5---|



Vers:

  Gsus2             Gsus2/F#          Gsus2/E           Gsus2/D
|-----------------|-----------------|-----------------|-----------------|
|-------0---------|-------0---------|-------0---------|-------0---------|
|-----0---0-------|-----0---0-------|-----0---0-------|-----0---0-------|
|---0-------0---0-|---0-------0---0-|---0-------0---0-|---0-------0---0-|
|-----------------|-----------------|-----------------|-----------------|
|-5-----------5---|-4-----------4---|-2-----------2---|-0-----------0---|


  Gsus2
|-----------------|-----------------|-----------------|-----------------|
|-------0---------|-------0---------|-------0---------|-------0---------|
|-----0---0-------|-----0---0-------|-----0---0-------|-----0---0-------|
|---0-------0---0-|---0-------0---0-|---0-------0---0-|---0-------0---0-|
|-----------------|-----------------|-----------------|-----------------|
|-5-----------5---|-5-----------5---|-5-----------5---|-5-----------5---|


  Gsus2             Gsus2/F#          Gsus2/E           Gsus2/D
|-----------------|-----------------|-----------------|-----------------|
|-------0---------|-------0---------|-------0---------|-------0---------|
|-----0---0-------|-----0---0-------|-----0---0-------|-----0---0-------|
|---0-------0---0-|---0-------0---0-|---0-------0---0-|---0-------0---0-|
|-----------------|-----------------|-----------------|-----------------|
|-5-----------5---|-4-----------4---|-2-----------2---|-0-----------0---|


  Gsus2
|-----------------|-----------------|-----------------|-----------------|
|-------0---------|-------0---------|-------0---------|-------0---------|
|-----0---0-------|-----0---0-------|-----0---0-------|-----0---0-------|
|---0-------0---0-|---0-------0---0-|---0-------0---0-|---0-------0---0-|
|-----------------|-----------------|-----------------|-----------------|
|-5-----------5---|-5-----------5---|-5-----------5---|-5-----------0---|


  Gsus2/E
|-----------------|-----------------|-----------------|-----------------|
|-------0---------|-------0---------|-------0---------|-------0---------|
|-----0---0-------|-----0---0-------|-----0---0-------|-----0---0-------|
|---0-------0---0-|---0-------0---0-|---0-------0---0-|---0-------0---0-|
|-----------------|-----------------|-----------------|-----------------|
|-2-----------2---|-2-----------2---|-2-----------2---|-2-----------0---|


Refräng:

  Gadd2             Gadd2/F#          Gadd2/E           Gadd2/D
|-------0---------|-------0---------|-------0---------|-------0---------|
|-----0---0-------|-----0---0-------|-----0---0-------|-----0---0-------|
|---0-------0---0-|---0-------0---0-|---0-------0---0-|---0-------0---0-|
|-----------------|-----------------|-----------------|-----------------|
|-----------------|-----------------|-----------------|-------------0---|
|-5-----------5---|-4-----------4---|-2-----------2---|-0---------------|


  Bm7               Bm7/A             Bm7/F#            Gadd2
|-------0---------|-------0---------|-------0---------|-------0---------|
|-----0---0-------|-----0---0-------|-----0---0-------|-----0---0-------|
|-----------------|-----------------|---------------0-|---0-------0---0-|
|---4-------4---4-|---4-------4---4-|---4-------4-----|-----------------|
|-2-----------2---|-0-----------0---|-----------------|-----------------|
|-----------------|-----------------|-4-----------4---|-5-----------5---|


  Gadd2             Gadd2/F#          Gadd2/E           Gadd2/D
|-------0---------|-------0---------|-------0---------|-------0---------|
|-----0---0-------|-----0---0-------|-----0---0-------|-----0---0-------|
|---0-------0---0-|---0-------0---0-|---0-------0---0-|---0-------0---0-|
|-----------------|-----------------|-----------------|-----------------|
|-----------------|-----------------|-----------------|-------------0---|
|-5-----------5---|-4-----------4---|-2-----------2---|-0---------------|


  Bm7                                 Bm7/A
|-------0---------|-------0---------|-------0---------|-------0---------|
|-----0---0-------|-----0---0-------|-----0---0-------|-----0---0-------|
|-----------------|-----------------|-----------------|-----------------|
|---4-------4---4-|---4-------4---4-|---4-------4---4-|---4------4----4-|
|-2-----------2---|-2-----------2---|-0-----------0---|-0-----------0---|
|-----------------|-----------------|-----------------|-----------------|


  Gsus2             G5add#4
|-----------------|-----------------|-----------------|-----------------|
|-------0---------|-------4---------|-------4---------|-------4---------|
|-----0---0-------|-----0---0-------|-----0---0-------|-----0---0-------|
|---0-------0---0-|---0-------0---0-|---0-------0---0-|---0-------0---0-|
|-----------------|-----------------|-----------------|-----------------|
|-5-----------5---|-5-----------5---|-5-----------5---|-5-----------5---|



(Put your hand on my heart...)

  Gsus2
|-----------------|-----------------|-----------------|-----------------|
|-------0---------|-------0---------|-------0---------|-------0---------|
|-----0---0-------|-----0---0-------|-----0---0-------|-----0---0-------|
|---0-------0---0-|---0-------0---0-|---0-------0---0-|---0-------0---0-|
|-----------------|-----------------|-----------------|-----------------|
|-5-----------0---|-5-----------5---|-5-----------5---|-5-----------5---|


  G
|-----------------|-----------------|-----------------|-----------------|
|-------2---------|-------2---------|-------2---------|-------2---------|
|-----0---0-------|-----0---0-------|-----0---0-------|-----0---0-------|
|---0-------0---0-|---0-------0---0-|---0-------0---0-|---0-------0---0-|
|-----------------|-----------------|-----------------|-----------------|
|-5-----------5---|-5-----------5---|-5-----------5---|-5-----------5---|


  G5add#4
|-----------------|-----------------|-----------------|-----------------|
|-------4---------|-------4---------|-------4---------|-------4---------|
|-----0---0-------|-----0---0-------|-----0---0-------|-----0---0-------|
|---0-------0---0-|---0-------0---0-|---0-------0---0-|---0-------0---0-|
|-----------------|-----------------|-----------------|-----------------|
|-5-----------5---|-5-----------5---|-5-----------5---|-5-----------5---|


|-----------------|-----------------|-----------------|----------------|
|-------4---------|-------4---------|-------4---------|-------4-(4)----|
|-----0---0-------|-----0---0-------|-----0---0-------|-----0----------|
|---0-------0---0-|---0-------0---0-|---0-------0---0-|---0------------|
|-----------------|-----------------|-----------------|----------------|
|-5-----------5---|-5-----------5---|-5-----------5---|-5--------------|




Intro:
G5add#4 (8x)

Vers:
          Gsus2        /F#     /E     /D          
well it's one thing to fall in love
    Gsus2
but another to make it last
  Gsus2           /F#    /E        /D       
I thought we were just beginning
Gsus2                                 (/D)
  and now you say we're in the past
/E                                                      (/D)
look me in the eye and tell me we are really through


         Gsus2             /F#     /E       /D
you know it's one thing to say you love me
     Gsus2
but another to mean it from the heart
    Gsus2        /F#       /E              /D
and if you don't intend to see it through
Gsus2                     (/D)
  why did we ever start
/E                                                   (/D)
  I wanna hear you tell me you don't want my love


Refrain:
         Gadd2        /F#       /E       /D
put your hand on your heart and tell me
         Bm7
it's all over
/A        /F#        Gadd2
I won't believe it 'til you
         Gadd2        /F#       /E       /D
put your hand on your heart and tell me
                   (/A) Bm7 Bm7 A A
that we're through
         Gsus2                 G5add#4
put your hand on your heart


(vers)
they like to talk about forever
but most people never get the chance
do you wanna lose our love together
do you find a new romance
I wanna hear you tell me you don't want my love

(refrain)
put your hand on your heart and tell me
it's all over
I won't believe it till you
put your hand on your heart and tell me
that we're through

         Gsus2
put your hand on your heart
         G
put your hand on your heart
G5add#4
look me in the eye and tell me we are really through

comments
print report bad tab
5 comments total. Showing first comments.
0 reply
DeadSunRising 12 wrote on May 22 2006, 12:20 pm

Amazing.
Thank you so much

0 reply
arcticmonkey 79 wrote on August 9 2006, 09:12 am

Thank you, perfect.

0 reply
getmesomekaka 55 wrote on September 8 2006, 04:21 pm

awesome tab

I want to post or [tab]
guest
You may want to rate the tab now too:
select rating
Please do not post tabs as comments. Select "correction" instead!