Oops, an error
Loading. Please wait.

Heartbeats Tab

version 10
152,341 views 63 this week
10 commentsread comments
1 2 3 4 5
x 13
add to favorites
launch autoscroll
font size
0
reset
how to read this tab
guitar tuner
Autoscroll
slow
fast
+/-
esc
set tempo
stop
Help us to improve Ultimate-Guitar.com Take our survey!
×
Author
Gtr I (D A D F# B E) - 'Jose Solo Acoustic' - * Capo is at fret 1
    
[Intro]
    Q=89
    D5
   4/4
    Gtr I
    S E.     E.    S +E.    S S E   S   S E.     S E   S +E.    S S E   S

e||------------------------------------|----------------------------------|
B||o-----------------------------------|-----------------------------0----|
G||-----------------3-(3)--------3-----|----------------3-(3)--------3----|
D||----0------0--------------0-------0-|---0--------0------------0-------0|
A||o------4h5----5-----4h5-5---5---0---|------4h5-5---5----4h5-5---5---0--|
E||--0---------------------------------|-0--------------------------------|
    E    S S S  E.    S S E   E   E     E    S S E   E    S S E   E   E


   B5                                   Gmaj7
   E.   S +S  E   S +E.    S +S  E.     E.   S S E   S E.    S S E.
e|------------------------------------|---------------------------------||
B|------------0-----------------------|--------------------------------o||
G|------------0------------------0----|----------0---------------0------||
D|------4-(4)-----4-(4)----4-(4)------|------0-------0-------0----------||
A|-2--2----2----2----0h2-2----0-------|----5---5---5---4h5-5---5----0--o||
E|----------------------------------4-|-5-------------------------------||
  E  E    E    E    S S E    E     E   E  E   E   E   S S E   E    E


 [Verse]
     $
     D5
     E.   S S E   S E.    S S E   S   E.   S S E   S E.    S S E   S
e||---------------------------------|---------------------------------|
B||o--------------------------------|---------------------------------|
G||-----------3---------------3-----|----------3---------------3------|
D||-------0-------0-------0-------0-|------0-------0-------0-------0--|
A||o----4---5---5---4h5-5---5---0---|----4---5---5---4h5-5---0---0----|
E||--0------------------------------|-0-------------------------------|
    E  E   E   E   S S E   E   E     E  E   E   E   S S E   E   E


   B5                                   Gmaj7
   E.   S +S  E   S +E.    S +S  E.     E.   S S E   S E.    S S E   S
e|------------------------------------|--------------------------------|
B|------------0------------------0----|--------------------------------|
G|-------------------------------0----|----------0---------------0-----|
D|------4-(4)-----4-(4)----4-(4)------|------0-------0-------0-------0-|
A|-2--2----2----2----0h2-2----0-------|----5---5---5---4h5-5---5---0---|
E|----------------------------------4-|-5------------------------------|
  E  E    E    E    S S E    E     E   E  E   E   E   S S E   E   E


   D5
   Q     S E   S E.    S S E   S   E.   S S E   S E.    S S E   S
e|-------------------------------|--------------------------------|
B|-------------------------------|--------------------------0-----|
G|---------3---------------3-----|----------3---------------0-----|
D|-------------0-------0-------0-|------0-------0-------0-------0-|
A|---4h5-5---5---4h5-5---5---0---|----4---5---5---4h5-5---0---0---|
E|-0-----------------------------|-0------------------------------|
  E S S E   E   S S E   E   E     E  E   E   E   S S E   E   E


[To Coda]

   B5
   E.   S +S  E   S +E.    S +S  E.
e|------------------------------------|
B|------------0-----------------------|
G|------------0------------------0----|
D|------4-(4)-----4-(4)----4-(4)------|
A|-2--2----2----2----0h2-2----0-------|
E|----------------------------------4-|
  E  E    E    E    S S E    E     E


   1.
   Gmaj7
                                    2/4
   S E   S S E   S E.    S S E   S   E.    S S E   S
e|---------------------------------|-----------------|
B|-----------0---------------------|-----------------|
G|-----------0---------------0-----|-----------0-----|
D|---0---0-------0-------0-------0-|-------0-------0-|
A|-----5---5---5---4h5-5---5---5---|-4h5-5---5---0---|
E|-5-------------------------------|-----------------|
  E   E   E   E   S S E   E   E     S S E   E   E


  4/4
   S E.     S E   S E.    S S E   S   Q     S E   S E.    S S E   S
e|----------------------------------|-------------------------------|
B|----------------------------------|-------------------------0-----|
G|------------3---------------3-----|---------3---------------0-----|
D|---0------------0-------0-------0-|-------------0-------0-------0-|
A|------4h5-5---5---4h5-5---5---0---|---4h5-5---5---4h5-5---0---0---|
E|-0--------------------------------|-0-----------------------------|
  E    S S E   E   S S E   E   E     E S S E   E   S S E   E   E


   E.   S +S  E   S +E.    S +S  E.     E.   S S E   S E.    S S E   S
e|------------------------------------|--------------------------------|
B|------------0------------------0----|--------------------------------|
G|-------------------------------0----|----------0---------------0-----|
D|------4-(4)-----4-(4)----4-(4)------|------0-------0-------0-------0-|
A|-2--2----2----2----0h2-2----0-------|----5---5---5---4h5-5---5---0---|
E|----------------------------------4-|-5------------------------------|
  E  E    E    E    S S E    E     E   E  E   E   E   S S E   E   E


   S E.     S E   S +E.    S S E   S   S E.     S E   S +E.    S S E   S
e|-----------------------------------|------------------------------------||
B|-----------------------------------|-----------------------------------o||
G|----------------3-(3)--------3-----|----------------3-(3)--------3------||
D|---0--------0------------0-------0-|---0--------0------------0-------0--||
A|------4h5-5---5----4h5-5---5---0---|------4h5-5---5----4h5-5---5---0---o||
E|-0---------------------------------|-0----------------------------------||
  E    S S E   E    S S E   E   E     E    S S E   E    S S E   E   E


   2.
   Gmaj7
   E.   S S E   S E.    S S E   S   E.   S S E   S E.    S S E   S
e|--------------------------------|--------------------------------|
B|----------0---------------------|--------------------------------|
G|----------0---------------0-----|----------0---------------0-----|
D|------0-------0-------0-------0-|------0-------0-------0-------0-|
A|----5---5---5---4h5-5---5---0---|----5---5---5---4h5-5---5---0---|
E|-5------------------------------|-5------------------------------|
  E  E   E   E   S S E   E   E     E  E   E   E   S S E   E   E


     D5
     S E   S S E   S E.    S S E   S   S E.     S E   S +E.    S S E   S
e||----------------------------------|-----------------------------------|
B||o---------------------------------|-----------------------------------|
G||------------3---------------3-----|----------------3-(3)--------3-----|
D||----0---0-------0-------0-------0-|---0--------0------------0-------0-|
A||o-----5---5---5---4h5-5---5---0---|------4h5-5---5----4h5-5---0---0---|
E||--0-------------------------------|-0---------------------------------|
    E   E   E   E   S S E   E   E     E    S S E   E    S S E   E   E


   B5
   E.   S +S  E   S +E.    S +S  E.
e|------------------------------------|
B|------------0------------------0----|
G|------------0------------------0----|
D|------4-(4)-----4-(4)----4-(4)------|
A|-2--2----2----2----0h2-2----0-------|
E|----------------------------------4-|
  E  E    E    E    S S E    E     E


   1.                                 2.
   Gmaj7
   E.   S S E   S E.    S S E   S     S E   S S E   S E.    S S E   S
e|---------------------------------||------------------------------------|
B|--------------------------------o||-----------0------------------------|
G|----------0---------------0------||-----------0---------------0--------|
D|------0-------0-------0-------0--||---0---0-------0-------0-------0----|
A|----5---5---5---4h5-5---5---0---o||-----5---5---5---4h5-5---5---5------|
E|-5-------------------------------||-5----------------------------------|
  E  E   E   E   S S E   E   E       E   E   E   E   S S E   E   E

[Bridge]

   E.   S S E   S S E   S S E   S   S E   S S E   S S E   S S E   S
e|--------------------------------|----------------------------------|
B|--------------------------------|----------------------------------|
G|----------0---------------0-----|-----------0---------------0------|
D|------0-------0---0---0-------0-|---0---0-------0---0---0----------|
A|----7---7---7-------7---7---7---|-----7---7---7-------7---7-----0--|
E|-7--------------7---------------|-7---------------7-----------7----|
  E  E   E   E   E   E   E   E     E   E   E   E   E   E   E   E


   S E   S S E   S S E   S S E   S   S E   S S E   S S E   S S E   S
e|---------------------------------|----------------------------------|
B|---------------------------------|----------------------------------|
G|-----------0---------------0-----|-----------0---------------0------|
D|---0---0-------0---0---0-------0-|---0---0-------0---0---0-------0--|
A|-----5---5---5-------5---5---5---|-----5---5---5-------5---5---5----|
E|-5---------------5---------------|-5---------------5----------------|
  E   E   E   E   E   E   E   E     E   E   E   E   E   E   E   E


   S E   S S E   S S E   S S E   S   S E   S S E   S S E   S S E   S
e|---------------------------------|----------------------------------|
B|---------------------------------|----------------------------------|
G|-----------0---------------0-----|-----------0---------------0------|
D|---0---0-------0---7---7-------0-|---0---0-------0---0---0----------|
A|-----7---7---7-------7---7---7---|-----7---7---7-------7---7-----0--|
E|-7---------------7---------------|-7---------------7-----------7----|
  E   E   E   E   E   E   E   E     E   E   E   E   E   E   E   E


   S E   S S E   S S E   S S E   S   S E   S S E   S S E   S S E   S
e|---------------------------------|---------------------------------|
B|---------------------------------|---------------------------------|
G|-----------0---------------0-----|-----------0---------------0-----|
D|---0---0-------0---0---0-------0-|---0---0-------0---0---0-5-----0-|
A|-----5---5---5-------5---5---5---|-----5---5---5-------5-------0---|
E|-5---------------5---------------|-5---------------5---------------|
  E   E   E   E   E   E   E   E     E   E   E   E   E   E   E   E


                                                     D.S. al Coda
   E.   S S E   S S E   S S E   S   E.   S S E   S S E   S S E   S
e|--------------------------0-----|--------------------------------|
B|----------0---------------0-----|--------------------------0-----|
G|----------0---------------------|----------0-------3-------------|
D|------4-------4---4---4-------4-|------4-------4-------4-------0-|
A|-2--2---2---2---2---2---2---2---|-2--2---2---2---2---2---2---0---|
E|--------------------------------|--------------------------------|
  E  E   E   E   E   E   E   E     E  E   E   E   E   E   E   E


   &
   S E   S S E   S E.    S S E.      W
e|--------------------------------|-------*|
B|--------------------------------|-------*|
G|-----------0---------------0----|-^3----*|
D|---0---0-------0-------0--------|-^0----*|
A|-----5---5---5---4h5-5---5----0-|-------*|
E|-5------------------------------|-^0----*|
  E   E   E   E   S S E   E    E



************************************

| (n)  Ghost note
| h    Hammer-on

************************************
Suggest correction
comments
print report bad tab
10 comments total. Showing first comments.
0 reply
Monotune 10 Dec 10, 2007 03:57 PM

hey man, this is the best tab i found here, its very close to the originale from jose, good work, keep on tabbing!!!

0 reply
karlitofingers 10 Dec 14, 2007 05:21 PM

I think the second note in the main rif is a 3rd string 3rd fret A#

0 reply
crjh 2,975 Dec 14, 2007 09:06 PM

Please note that this requires a capo at fret 1. i am posting a correction now.....

guest
You may want to rate the tab now too:
select rating
Wanna post a correction for this tab? Suggest correction