Oops, an error
Loading. Please wait.

Heartbeats Tab

version 4
31,925 views 45 this week
no commentswrite comment
1 2 3 4 5
not so good
x 4
add to favorites
launch autoscroll
font size
0
reset
how to read this tab
guitar tuner
Autoscroll
slow
fast
+/-
esc
set tempo
stop
Help us to improve Ultimate-Guitar.com Take our survey!
×
Difficulty
intermediate
Jose Gonzalez
Veneer
Heartbeats

This is my first tab, so I hope it's right. I was watching him play it live in London on
a Sony website and he has a capo on the first fret and plucks the strings around the 5th
fret area. I'm sure this is right, I play it on an Yamaha F310 and it sounds brilliant.
I was just fiddling around trying to get the tuning right with DADF#BE and I couldn't
work it out so I plucked the G -String when I was fiddling around and looked at Jose
while he was playing it and copied his hand movemenets.

/ - hammer on

Capo 1st Fret

Standard Tuning (Just fiddle with the G-String until you feel it sounds right with the plucked strings)


Intro - Verse


E------------------------------------------------------------|
B------------------------------------------------------------|
G--------4----------4------------------4--------------4------|
D------------------------------------------------------------|
A--5/6 ------5/6--------0------5/6------------5/6--------0---|
E------------------------------------------------------------| \
                                                               ) x2
E------------------------------------------------------------| /
B------------------------------------------------------------|
G------0-------------0---------------------------------------|
D--5-----5--5----5-----5--------------0-----------0----------|
A--3------3------3------3-----0----6----4------6----4--------|
E----------------------------------4-----------4-------------|

Chorus (Kept us away with wolfsteeth, sharing different heartbeats..)

As he plucks very awkwardly, just improvise until you learn the technique. It's not that hard

E------------------------------------------------------------|
B------------------------------------------------------------|
G--------4----------4------------------4--------------4------|
D------------------------------------------------------------|
A--5/6 ------5/6--------0------5/6------------5/6--------0---|
E------------------------------------------------------------|

E------------------------------------------------------------|
B------------------------------------------------------------|
G------0-------------0---------------------------------------|
D--5-----5--5----5-----5--------------0-----------0----------|
A--3------3------3------3-----0----6----4------6----4--------|
E----------------------------------4-----------4-------------|


E-------------------------------------------------------0---0-|
B---------------------------------------------------------0---|
G------0-------------0-------------0-------------0------------|
D--5-----5--5----5-----5--5---5------5--5----5-----5----------|
A--3------3------3------3-----3-------3------3------3---------|
E-------------------------------------------------------------|

E------------------------------------------------------------|
B------------------------------------------------------------|
G------------------------------------------------------------|
D----0----------Then back to beginning and repeat------------|
A-0-----0----------------------------------------------------|
E------------------------------------------------------------|
Suggest correction
comments
print report bad tab
guest
You may want to rate the tab now too:
select rating
Please do not post tabs as comments. Select "correction" instead!