Oops, an error
Loading. Please wait.

Heartbeats Tab

version 8
8,787 views 3 this week
no commentswrite comment
1 2 3 4 5
please rate
add to favorites
launch autoscroll
font size
0
reset
how to read this tab
guitar tuner
Autoscroll
slow
fast
+/-
esc
set tempo
stop
Help us to improve Ultimate-Guitar.com Take our survey!
×
Difficulty
intermediate
------------------------------
  Jose Gonzalez - Heartbeats
------------------------------

    D#maj7                           D#maj7
  E|--------------------------------|--------------------------------|
  B|--------------------------------|--------------------------------|
  G|--------------3-----------3-----|--------------3-----------3-----|
  D|----0h1---1-----0h1---1---------|----0h1---1-----0h1---1---------|
  A|----------------------------1---|----------------------------1---|
 D#|0-------------------------------|0-------------------------------|
    `   `   `   `   `   `   `   `    `   `   `   `   `   `   `   `
[Intro x2]
1.       One night to be confused         One night to speed up truth
2.       Both under influence             We ha-ad divine scent
Refr.    To call for hands of above               To le-ean on
[Reprise - first line only]
3.       One night of magic rush          The start of simple touch
4.       Ten days of perfect tunes        The colours red and blue
[Refrain x2]
[Bridge - see below]
[Refrain x2]

                                                                1,3,etc.
    C7                               D#maj7                     |
  E|--------------------------------|--------------------------------|
  B|------------1-------------------|--------------------------------|
  G|--------0---0-0-------0---0-----|--------0---3-0-------0---3-----|
  D|--------------------------------|----------------0h1-------------|
  A|3---3-----------1h3-------------|----6-----------------------1---|
 D#|----------------------------4---|5-------------------------------|
    `   `   `   `   `   `   `   `    `   `   `   `   `   `   `   `
[Intro x2]
1.       We had a promise made            Four hands and then away
2.       To kno-ow what to say            Mind is a razor blade
Refr.    Wouldn't be go-od enough                 For me-e, no
3.       One night to push and scream             And the-en bre-eathe
4.       We had a promise made                        We were i-
[Refrain]
(Refr.)  Wouldn't be go-od enough                                 And
[Refrain]
(Refr.)  Wouldn't be go-od enough


   4----------------- 2,4--------------- Final refrain----
   |     D#maj7       |                  |D#5
  E|----|--------------------------------|----------------|
  B|----|--------------------------------|----------------|
  G|----|--0-0---0---3-0-------0---3-----|---3------------|
  D|----|----------------0h1-------------|--1-------------|
  A|----|----------------------------1---|-1--------------|
 D#|----|--------------------------------|0---------------|
    `    `   `   `   `   `   `   `   `    `   `   `   `   
4.   -in love...


-----------
  Bridge
-----------

    A#6sus4                          A#6sus4
 E||--------------------------------|--------------------------------|
 B||--------------------------------|--------------------------------|
 G||.---------0---------------0-----|----------0---------------0-----|
 D||.--------------------(8)--------|--------------------------------|
 A||----8-6-----8-6-----8(6)----8-6-|----8-6-----8-6-----8-6-----8-6-|
D#||7---------------7---------------|7---------------7---------------|
    `   `   `   `   `   `   `   `    `   `   `   `   `   `   `   `
1.   you...                               You knew the hand of the
2.   you...                               Kept us awa-ake with


    G#maj7                           G#maj7
  E|--------------------------------|--------------------------------||
  B|--------------------------------|--------------------------------||
  G|----------0---------------0-----|----------0---------------0----.||
  D|--------------------------------|-------------------------------.||
  A|----6-6-----6-6-----6-6-----6-6-|----6-6-----6-6-----6-6-----6-6-||
 D#|5---------------5---------------|5---------------5---------------||
    `   `   `   `   `   `   `   `    `   `   `   `   `   `   `   `
1.   devil...                                                     And
2.   wolf's teeth, sharing different  heartbeats, in one


    Csus4                            C7
  E|--------------------------1-----|--------------------------------|
  B|----------1---------------1-----|----------1---------------1-----|
  G|----0-0-----0-0-----0-0-----0-0-|----0-0-----0-0---3---0---------|
  D|--------------------------------|--------------------------------|
  A|3---------------3---------------|3---------------3---3---3---1---|
 D#|--------------------------------|--------------------------------|
    `   `   `   `   `   `   `   `    `   `   `   `   `   `   `   `
    night...

Suggest correction new What's this?
You can suggest a correction to this tab. Community and Mods will review your correction and vote to approve or reject it.
comments
We did not receive enough feedback on this tab! Please rate:
print report bad tab
1 2 3 4 5
I want to post or [tab]
guest
You may want to rate the tab now too:
select rating
Please do not post tabs as comments. Select "correction" instead!