Oops, an error
Loading. Please wait.

Heartbeats Tab

version 9
223,834 views 165 this week
17 commentsread comments
1 2 3 4 5
x 72
add to favorites
launch autoscroll
font size
0
reset
how to read this tab
guitar tuner
Autoscroll
slow
fast
+/-
esc
set tempo
stop
Help us to improve Ultimate-Guitar.com Take our survey!
×
Author
Difficulty
Capo
intermediate
1st fret
-------------------------------------------------------------------------------
                             Heartbeats - José González
-------------------------------------------------------------------------------
Tabbed by: The_Don
Email: TBig.Don@googlemail.com

Tuning: DADF#BE
Capo: 1st Fret

A great song with loads of feeling in it. Sorry the tab is so long but he does little changes
throughout the song. I think this is accurate but still listen to the song very carefully
you want to play it completely accurate.

Remember to use the capo on 1st Fret, everything is relative to it.


        How to tune (Don't need capo for this):

e|------------------0--|
B|--------------0---5--|
G|----------0---5------|
D|------0---4----------|
A|--0---5--------------|
E|--7------------------|<---- Tune down so it sounds the same


[Intro:]

E |---------------------------|------------------------|---------------------------||
B |---------------------------|------------------------|---------------------------||
F#|------------------------3--|------------------3-----|------------------------3--||
D |-----0-------0-----(0)-----|-------0-----(0)--------|-----0-------0-----(0)-----||
A |--------4h5-----5----------|--4h5-----5----------0--|--------4h5-----5----------||
D |--0------------------------|------------------------|--0------------------------||

---------------------------|
------------------0--------|
------------------3--------|
-------0-----(0)--------0--|
--4h5-----5----------0-----|
---------------------------|


E |-------------------------|----------------------|-----------------------------------------|
B |----------------0--------|----------------------|-----------------------------------------|
F#|----------------0--------|----------------------|------------0----------------------0-----|
D |----------4-----------4--|----------4-----4-----|---------0--------0-------0-----0--------|
A |--2----2-----2-----2-----|--0h2--2-----0--------|------5--------5-----4h5-----5--------0--|
D |-------------------------|-------------------4--|--5--------------------------------------|


E |-------------------------|------------------------|-------------------------|------------------------|
B |-------------------------|------------------------|-------------------------|------------------------|
F#|----------------------3--|------------------3-----|----------------------3--|------------------3-----|
D |-----------0-----(0)-----|-------0-----(0)--------|-----------0-----(0)-----|-------0-----(0)--------|
A |------4h5-----5----------|--4h5-----5----------0--|------4h5-----5----------|--4h5-----5----------0--|
D |--0----------------------|------------------------|--0----------------------|------------------------|


E |-------------------------|----------------------|-----------------------------------------|
B |----------------0--------|----------------------|-----------------------------------------|
F#|----------------0--------|----------------------|------------0----------------------0-----|
D |----------4-----------4--|----------4-----4-----|---------0--------0-------0-----0--------|
A |--2----2-----2-----2-----|--0h2--2-----0--------|------5--------5-----4h5-----5--------0--|
D |-------------------------|-------------------4--|--5--------------------------------------|


  [Verse:]

E |----------------------|------------------------|----------------------|-----------------------|
B |----------------------|------------------------|----------------------|-----------------------|
F#|-------------3--------|------------------3-----|-------------3--------|-----------------3-----|
D |----------0--------0--|-------0-----(0)--------|----------0--------0--|-------0---------------|
A |-----4h5--------5-----|--4h5-----5----------0--|-----4h5--------5-----|--4h5-----5---0-----0--|
D |--0-------------------|------------------------|--0-------------------|-----------------------|


E |-------------------------|----------------------|-----------------------------------------|
B |----------------0--------|----------------------|-----------------------------------------|
F#|----------------0--------|----------------------|------------0----------------------0-----|
D |----------4-----------4--|----------4-----4-----|---------0--------0-------0-----0--------|
A |--2----2-----2-----2-----|--0h2--2-----0--------|------5--------5-----4h5-----5--------0--|
D |-------------------------|-------------------4--|--5--------------------------------------|


E |----------------------|------------------------|----------------------|-----------------------|
B |----------------------|------------------------|----------------------|-----------------0-----|
F#|-------------3--------|------------------3-----|-------------3--------|-----------------3-----|
D |----------0--------0--|-------0-----(0)--------|----------0--------0--|-------0---------------|
A |-----4h5--------5-----|--4h5-----5----------0--|-----4h5--------5-----|--4h5-----5---0-----0--|
D |--0-------------------|------------------------|--0-------------------|-----------------------|


E |-------------------------|----------------------|--------------------------------------------||
B |----------------0--------|----------------------|--------------------------------------------||
F#|----------------0--------|----------------------|------------0----------------------0--------||
D |----------4-----------4--|----------4-----4-----|---------0--------0-------0-----0--------0--||
A |--2----2-----2-----2-----|--0h2--2-----0--------|------5--------5-----4h5-----5--------5-----||
D |-------------------------|-------------------4--|--5-----------------------------------------||

 *With feeling*|
----------------------|
----------------------|
----------------0-----|
-------0-----0--------|
--4h5-----5--------0--|
----------------------|


[ Chorus:]

E |----------------------|------------------------|-------------------------|-----------------------|
B |----------------------|------------------------|-------------------------|-----------------0-----|
F#|-------------3--------|------------------3-----|----------------------3--|-----------------3-----|
D |----------0--------0--|-------0-----(0)--------|-----------0-----(0)-----|-------0---------------|
A |-----4h5--------5-----|--4h5-----5----------0--|------4h5-----5----------|--4h5-----5---0-----0--|
D |--0-------------------|------------------------|--0----------------------|-----------------------|


E |-------------------------|----------------------|-----------------------------------------|
B |----------------0--------|----------------------|-----------------------------------------|
F#|----------------0--------|----------------------|------------0----------------------0-----|
D |----------4-----------4--|----------4-----4-----|---------0--------0-------0-----0--------|
A |--2----2-----2-----2-----|--0h2--2-----0--------|------5--------5-----4h5-----5--------0--|
D |-------------------------|-------------------4--|--5--------------------------------------|


[Break:]
                                                                                    *With feeling*
E |-------------------------|------------------------|-------------------------|------------------------|
B |-------------------------|------------------------|-------------------------|------------------------|
F#|----------------------3--|------------------3-----|----------------------3--|------------------3-----|
D |-----------0-----(0)-----|-------0-----(0)--------|-----------0-----(0)-----|-------0-----(0)--------|
A |------4h5-----5----------|--4h5-----5----------0--|------4h5-----5----------|--4h5-----5----------0--|
D |--0----------------------|------------------------|--0----------------------|------------------------|


[Verse:]

E |----------------------|----------------------|----------------------|--------------------------|
B |----------------------|----------------------|----------------------|--------------------------|
F#|-------------3--------|----------------3-----|-------------3--------|-----------------3--------|
D |----------0--------0--|-------0--------------|----------0--------0--|-------0---------------0--|
A |-----4h5--------5-----|--4h5-----5--0-----0--|-----4h5--------5-----|--4h5-----5---0-----0-----|
D |--0-------------------|----------------------|--0-------------------|--------------------------|


E |-------------------------|----------------------|-----------------------------------------|
B |----------------0--------|----------------------|-----------------------------------------|
F#|----------------0--------|----------------------|------------0----------------------0-----|
D |----------4-----------4--|----------4-----4-----|---------0--------0-------0-----0--------|
A |--2----2-----2-----2-----|--0h2--2-----0--------|------5--------5-----4h5-----5--------0--|
D |-------------------------|-------------------4--|--5--------------------------------------|


E |----------------------|---------------------------|----------------------|--------------------------|
B |----------------------|---------------------------|----------------------|--------------------------|
F#|-------------3--------|------------------3--------|-------------3--------|-----------------3--------|
D |----------0--------0--|-------0-----(0)--------0--|----------0--------0--|-------0---------------0--|
A |-----4h5--------5-----|--4h5-----5----------0-----|-----4h5--------5-----|--4h5-----5---0-----0-----|
D |--0-------------------|---------------------------|--0-------------------|--------------------------|


E |-------------------------|----------------------|-----------------------------------------||
B |----------------0--------|----------------------|-----------------------------------------||
F#|----------------0--------|----------------------|------------0----------------------0-----||
D |----------4-----------4--|----------4-----4-----|---------0--------0-------0-----0--------||
A |--2----2-----2-----2-----|--0h2--2-----0--------|------5--------5-----4h5-----5--------5--||
D |-------------------------|-------------------4--|--5--------------------------------------||

*With feeling*
----------------------------------------|
----------------------------------------|
-----------0----------------------0-----|
--0-----0--------0-------0-----0--------|
-----5--------5-----4h5-----5--------0--|
----------------------------------------|


[Chorus:]

E |----------------------|------------------------|-----------------------|-----------------------|
B |----------------------|------------------------|-----------------------|-----------------------|
F#|-------------3--------|------------------3-----|--------------3--------|-----------------3-----|
D |----------0--------0--|-------0-----(0)--------|-----------0--------0--|-------0---------------|
A |-----4h5--------5-----|--4h5-----5----------0--|------4h5--------5-----|--4h5-----5---0-----0--|
D |--0-------------------|------------------------|--0--------------------|-----------------------|


E |-------------------------|----------------------|-----------------------------------------|
B |----------------0--------|----------------------|-----------------------------------------|
F#|----------------0--------|----------------------|------------0----------------------0-----|
D |----------4-----------4--|----------4-----4-----|---------0--------0-------0-----0--------|
A |--2----2-----2-----2-----|--0h2--2-----0--------|------5--------5-----4h5-----5--------0--|
D |-------------------------|-------------------4--|--5--------------------------------------|

E |----------------------|------------------------|-------------------------|-----------------------|
B |----------------------|------------------------|-------------------------|-----------------------|
F#|-------------3--------|------------------3-----|----------------------3--|-----------------3-----|
D |----------0--------0--|-------0-----(0)--------|-----------0-----(0)-----|-------0---------------|
A |-----4h5--------5-----|--4h5-----5----------0--|------4h5-----5----------|--4h5-----5---0-----0--|
D |--0-------------------|------------------------|--0----------------------|-----------------------|


E |-------------------------|----------------------|--------------------------------------------|
B |----------------0--------|----------------------|--------------------------------------------|
F#|----------------0--------|----------------------|------------0----------------------0--------|
D |----------4-----------4--|----------4-----4-----|---------0--------0-------0-----0--------0--|
A |--2----2-----2-----2-----|--0h2--2-----0--------|------5--------5-----4h5-----5--------5-----|
D |-------------------------|-------------------4--|--5-----------------------------------------|


[Bridge:]

E |----------------------------------|----------------------------------|
B |----------------------------------|----------------------------------|
F#|----------0----------------0------|----------0----------------0------|
D |--------0-----0----------0-----0--|--------0-----0----------0-----0--|
A |------7-----7----------7-----7----|------7-----7----------7-----7----|
D |--7----------------7--------------|--7----------------7--------------|


E |----------------------------------|----------------------------------|
B |----------------------------------|----------------------------------|
F#|----------0----------------0------|----------0----------------0------|
D |--------0-----0----------0-----0--|--------0-----0----------0-----0--|
A |------5-----5----------5-----5----|------5-----5----------5-----5----|
D |--5----------------5--------------|--5----------------5--------------|


E |----------------------------------|----------------------------------|
B |----------------------------------|----------------------------------|
F#|----------0----------------0------|----------0----------------0------|
D |--------0-----0----------7-----0--|--------0-----0----------0-----0--|
A |------7-----7----------7-----7----|------7-----7----------7-----7----|
D |--7----------------7--------------|--7----------------7--------------|


E |----------------------------------|----------------------------------|
B |----------------------------------|----------------------------------|
F#|----------0----------------0------|----------0----------------0------|
D |--------0-----0----------0-----0--|--------0-----0----------0-----0--|
A |------5-----5----------5-----5----|------5-----5----------5-----0----|
D |--5----------------5--------------|--5----------------5--------------|


E |-------------------------0------|---------------------------|
B |----------0--------------0------|----------0-----------0----|
F#|--------0-----0--------0-----0--|--------0-----0---3-0------|
D |------4-----4--------4-----4----|------4-----4--------------|
A |--2--------------2--------------|--2--------------2-2-2--0--|
D |--------------------------------|---------------------------|


[Chorus:]

E |-------------------------|------------------------|--------------------------|--------------------------|
B |-------------------------|------------------------|--------------------------|--------------------------|
F#|----------------3--------|------------------3-----|-----------------3--------|-----------------3--------|
D |-----0-------0--------0--|-------0-----(0)--------|-----0--------0--------0--|-------0---------------0--|
A |--------4h5--------5-----|--4h5-----5----------0--|---------4h5--------5-----|--4h5-----5---0-----0-----|
D |--0----------------------|------------------------|--0-----------------------|--------------------------|


E |-------------------------|----------------------|-----------------------------------------|
B |----------------0--------|----------------------|-----------------------------------------|
F#|----------------0--------|----------------------|------------0----------------------0-----|
D |----------4-----------4--|----------4-----4-----|---------0--------0-------0-----0--------|
A |--2----2-----2-----2-----|--0h2--2-----0--------|------5--------5-----4h5-----5--------0--|
D |-------------------------|-------------------4--|--5--------------------------------------|

E |----------------------|------------------------|---------------------------|--------------------------|
B |----------------------|------------------------|---------------------------|-----------------0--------|
F#|-------------3--------|------------------3-----|------------------------3--|-----------------3--------|
D |----------0--------0--|-------0-----(0)--------|-----0-------0-----(0)-----|-------0---------------0--|
A |-----4h5--------5-----|--4h5-----5----------0--|--------4h5-----5----------|--4h5-----5---0-----0-----|
D |--0-------------------|------------------------|--0------------------------|--------------------------|


E |-------------------------|----------------------|-----------------------------------------|-----|
B |----------------0--------|----------------------|-----------------------------------------|-----|
F#|----------------0--------|----------------------|------------0----------------------0-----|--3--|
D |----------4-----------4--|----------4-----4-----|---------0--------0-------0-----0--------|--0--|
A |--2----2-----2-----2-----|--0h2--2-----0--------|------5--------5-----4h5-----5--------0--|--0--|
D |-------------------------|-------------------4--|--5--------------------------------------|-----|
Suggest correction
comments
print report bad tab
17 comments total. Showing first comments.
0 reply
sseedell 10 Jul 12, 2006 04:25 PM

Im certain this tab is the closest one on this site but i just cant get the timing right!! It just sounds nothing like the intro on the video when i play it and jose seems to play it a lot faster. Can anyone help?!

0 reply
The_Don 71 Jul 16, 2006 04:07 AM

It is the closest but some notes aren't played as loud as others in the actual song so you just need to listen out closely.

+6 reply
lavalampan 252 Aug 07, 2006 05:56 PM

come on guys.. you have to give this a 5.. maybe josé just improvised. It's not that important to get it 100% correct

guest
You may want to rate the tab now too:
select rating
Wanna post a correction for this tab? Suggest correction