Oops, an error
Loading. Please wait.

The Nest Tab

version 1
version 1

Intro

Whole song

Interactive

4,167 views 15 this week
2 commentsread comments
1 2 3 4 5
please rate
add to favorites
launch autoscroll
font size
0
reset
how to read this tab
guitar tuner
Tab Pro tools
  • play this tab
  • loop segment
  • change instrument
  • show fretboard
  • metronome
×
Best way to learn
"The Nest"
Autoscroll
slow
fast
+/-
esc
set tempo
stop
Contributor
-------------------------------------------------------------------------------
                             THE NEST - José González
-------------------------------------------------------------------------------
Tabbed by: Filip Mesko
Email: filip mesko gmail com

This is just the introduction to the song... Well, not even that. It is more of a start 
a base which I hope others will develop into the whole song.

Tuning: D A D G B e

e |-----------------------------|-----------------------------|
B |---------3-----------3-------|---------3-----------3-------|
G |-------0---0-------0---0-----|-------0---0-------0---0-----|
D |-------------0-----------0---|-------------0-----------0---|
A |---3-----------3-------------|---2-----------2-------------|
D |-----------------------------|-----------------------------|

e |-----------------------------|-----------------------------|
B |---------3-----------3-------|---------3----------(3)------|
G |-------0---0-------0---0-----|-------0---0------(0)-(0)----|
D |-------------0-----------0---|-------------0----------(0)--|
A |---0-------------------------|-----------------------0-----|
D |---------------5-------------|---4-----------4h5-----------|

e |-----------------------------|-----------------------------|
B |---------3-----------3-------|---------3-------------------|
G |-------0---0-------0---0-----|-------0---0-----------------|
D |-------------0-----------0---|-------------0----And-then---|
A |---3-----------3-------------|---2-----------2--something--|
D |-----------------------------|------------------something--|

Good luck!

| /  slide up
| \  slide down
| h  hammer-on
| p  pull-off
| ~  vibrato
| +  harmonic
| x  Mute note
===============================================================================
comments
We did not receive enough feedback on this tab! Please rate:
print report bad tab
1 2 3 4 5
2 comments total.
-1 reply
Daniel Bacellar wrote on July 2 2015, 11:23 am, edited at 11:37 am

Besides incomplete and inaccurate it was a good try for a tab version without the capo and a difficult tuning. I'll try a correction.

-1 reply
Daniel Bacellar wrote on July 2 2015, 11:38 am, edited at 11:39 am

Tuning: Drop D

Intro + Verse
E|-------------------------------------------------------------------|
B|-----2-----2-----2-----2-----2-----2-----2-----2-------------------|
G|------3-----3-----3-----3-----3-----3-----3-----3------------------|
D|----0--0--0--0--0--0--0--0--0--0--0--0--0--0--0--0-----------------|
A|-3------3-----2-----2------0-----0--------------------0------------|
D|--------------------------------------5-----4-----4/5--------------|

'Walls go dense...'
E|-------------------------------------------------------------------|
B|-----3-----3-----3-----3-----------3-----3-----3-----3-------------|
G|------2-----2-----2-----2-----------2-----2-----2-----2------------|
D|----3--3--3--3--3--3--3--3--------4--4--2--2--0--0--2--2-----------|
A|--1-----1-----1-----1-----1------0----0-----0-----0----------------|
E|-------------------------------------------------------------------|

E|-------------------------------------------------------------------|
B|-----3-----3-----3-----3-----------3-----3-----3-----3-------------|
G|------2-----2-----2-----2-----------2-----2-----2-----2------------|
D|----3--3--3--3--3--3--3--3--------4--4--2--2--4--4--5--5-----------|
A|--1-----1-----1-----1-----1------0----0-----0-----0----------------|
E|-------------------------------------------------------------------|

Solo (x2)

E|--3-------3-------3-------3-------3--5---3--2--0-------------0--2--|
B|-----3-------3-------3-------3---------------------3------3--------|
G|-------2-------2-------2-------2-----------------------2-----------|
D|-----------------------------------------0-0-0-0-0---0-------------|
A|--3-3-3---3-3-3---2-2-2---2-2-2---2---2----------------0-0-0-0-0-0-|
E|-------------------------------------------------------------------|

If you have good ears, go around this chords and you'll find out easily the finger-piking for yourself:

intro+verse
030320
020320
000320
500320
400320

"walls go dense..."
X13230
X04230
x02230
x00230

Solo:
030233
020233
000230

Peace

I want to post or [tab]
guest
You may want to rate the tab now too:
select rating
Please do not post tabs as comments. Select "correction" instead!