Oops, an error
Loading. Please wait.

La Tortita Rica Tab

4 views 1 this week
no commentswrite comment
1 2 3 4 5
3 more votes to show rating
add to favorites
×
Save as Personal and add changes to this tab that will be seen only by you. Learn more ›
×
You can save this tab as Personal to edit and correct it or add notes. All changes will be seen only by you. Learn more »
save as personal
new!
launch autoscroll
font size
0
reset
how to read this tab
guitar tuner
Autoscroll
slow
fast
+/-
esc
set tempo
stop
bueno banda pues aqui les tengo un intro sencillo de joseluis df
dudas o sugerencias mandenlas a mi correo ufo_hendrix@
e-------------------------------------------------------
b-------------------------------10-13---15r-------------
g-----------------9-12---9h-12--------------------------
D--10-12---10h-12---------------------------------------
A-------------------------------------------------------
E-------------------------------------------------------

e------------------------------------------------------
b-------------------------------10-13---13s-15-13------
g-----------------9-12---9h-12-------------------------
D--10-12---10h-12--------------------------------------
A------------------------------------------------------
E------------------------------------------------------

e------------------------------------------------------
b------------------------------------------------------
g------------------------------------------------------
D--------10-12--10-13r--13-12-10--12-10--12s-14-12-----
A--10-12-----------------------------------------------
E------------------------------------------------------

Am
tengo una familia

que es de mucho paro
 F
ver aquella morra
            G
que un dia me encontre

Am
en una tocada

juntos nos ligamos
  F
luego hasta su casa
        G
yo la acompañe

F
yo vestia de mezcla
     G
y traia unos clavos
F
y un toque de aquella
          G
del cual le invite
F
arriba en su cuarto
         G
los dos nos clavamos
 F            E
vaya chava gruesa
              Am
con que me tope-e

Am
ya estando pasados

nos degeneramos
F
y a todas mis hondas
      G
ella les llego
 Am
despues alocados

ahi nos acostamos
F
y de su cholillo
      G
ella se olvido

F
mas de pronto
              G
un grito nos saco de onda
F
y ahi le paramos
         G
aquel reventon
F                    G
era su mama que con su matona
F            E                Am
en pleno agasajo cruel nos agarro


Am
desde aquella vez

yo ya no he vuelto a verla
 F
la tortita rica
       G
se olvido de mi

Am
me quede clavado

quisiera tenerla
 F
por que su recuerdo
           G
se ha aferrado a mi

F
me lanzo a tocadas
       G
a ver si la encuentro
 F
pero pura de aire
          G
ya no a vuelto a ir

 F
dicen que su jefe
    G
la mando al gabacho
 F            E
la chavita gruesa
              Am
se piro de aqui-i
 F            E
la chavita gruesa
              Am
se piro de aqui-i


para todas las bizcochitos
rockerillas.
Suggest correction
Give kudos to tab author, rate the tab!
1 2 3 4 5
comments
print report bad tab
guest
Wanna post a correction for this tab? Suggest correction