Oops, an error
Loading. Please wait.

Sabes Que Paso Tab

18 views 1 this week
no commentswrite comment
1 2 3 4 5
3 more votes to show rating
add to favorites
launch autoscroll
font size
0
reset
how to read this tab
guitar tuner
×
Best way to learn
"Sabes Que Paso"
Autoscroll
slow
fast
+/-
esc
set tempo
stop
Introducción:

    E               B               C#m

1|----------7---------------7----------------9---------
2|------9-------9-------7-------7--------9-------9-----
3|----9---9---9---9---8---8---8---8----9---9---9---9---
4|--9---------------9---------------11-----------------
5|-----------------------------------------------------
6|-----------------------------------------------------

   G#m                     A               E

1|-------------11------------------5---------------7---------
2|-------12----------12--------5-------5-------9-------9-----
3|----13----13----13----13---6---6---6---6---9---9---9---9---
4|-------------------------7---------------9-----------------
5|-11--------------------------------------------------------
6|-----------------------------------------------------------

    B               E                B7

1|----------7---------------7--------7-7--7-7--7-7--|
2|------7-------7-------9-------8----7-7--7-7--7-7--|
3|----8---8---8---8---9---9---9---9--8-8--8-8--8-8--|
4|--9---------------9----------------7-7--7-7--7-7--|
5|-----------------------------------9-9--9-9--9-9--|
6|-----------------------------------7-7--7-7--7-7--|


E                           B7
Sentado en una nube de algodón
  C#m                      G#m
dejaba que su mente lo elevara más;
   A                            E
haciendo de su vuelo un gran ondón
                  B7                   E
y diciendo incoherencias se ponía a soñar.

    E                     B7
Un bote de cemento diario iba a comprar
    C#m                          G#m
con lo que al vecindario le atracó:
    A                      E
ya nada le importaba el quería volar.
             B7                E   E7
Su madre un día de casa lo corrió.

              A  B7
¿Sabes que pasó?
               E    C#7
Se le pegó el coco;
             F#m                  B7
por tanto cemento que siempre inhaló
              E    E7
se volvió re'loco.

              A   B7
¿Sabes que pasó?
              E    C#7
Ayer lo enterramos
               F#m
¿Por qué se murió?
              B7
Y dijo el Doctor:
                  E     B7
?Fue el chemo malvado?


Intermezzo: E  B7  C#m  G#m  A  E  B7  E

     E                    B7
Mi cuate, mi cuate yo le dije: ?no le tupas más
 C#m                                 G#m
-pero el ni caso hacia, que dolo sentí-
    A                                   E
si vieras que la gente habla de ti tan mal?;
                B7                E
el inflando su bolsa se alejó de mi.

     E                      B7
Hoy viaja en un fúnebre cartón,
     C#m                  G#m
el chavo cementero no alucina más;
     A                       E
lo llevan sus amigos al panteón.
                 B7                E    E7
Se le secó el cerebro, no pudo pensar.

              A  B7
¿Sabes que pasó?
               E    C#7
Se le pegó el coco;
             F#m                  B7
por tanto cemento que siempre inhaló
              E    E7
se volvió re'loco.

              A   B7
¿Sabes que pasó?
              E    C#7
Ayer lo enterramos
               F#m
¿Por qué se murió?
              B7
Y dijo el Doctor:
            E    B7
?Cerebro pegado?
            E    B7
?Cerebro pegado?
            E
?Cerebro pegado?
Suggest correction
Give kudos to tab author, rate the tab!
1 2 3 4 5
comments
print report bad tab
guest
You may want to rate the tab now too:
select rating
Wanna post a correction for this tab? Suggest correction