Oops, an error
Loading. Please wait.

Sao Felipe Tab

42 views 1 this week
no commentswrite comment
1 2 3 4 5
please rate
add to favorites
launch autoscroll
font size
0
reset
how to read this tab
guitar tuner
Tab Pro tools
  • play this tab
  • loop segment
  • change instrument
  • show fretboard
  • metronome
×
Best way to learn
"Sao Felipe"
Autoscroll
slow
fast
+/-
esc
set tempo
stop
Contributor
Difficulty
intermediate
Sao Felipe - Jose Neto, http://www.joseneto.com/
from Mountains And The Sea De Novo

tabbed by Almir Nametak
mokra@starmo.co.uk
march 2011



E-----7---7--7--7--3-5-7-5-3-3-5-5-5---5---5-3-5-7-5-3--3-5-7-5-3--3-1-0---------------------------|
B-----0-0--0--0-------------5--3--3---3---3------8-7-5-5---------5-1----1-3-5-3--1-0---------------|
G-----0--0--0--0---------------0-----------------7-7-5-------------2------2-4-2-2---2-0-2----------|
D-----5------------------------5-----------------------------------------------------2-------------|
A-----0--------------------------------------------------------------------------------------------|
E------------------------------0----0/3-0/3------8-7-5-------------1------1-3-1--------------------|


E---------0-----0-----0----------------------------------------------------------------------------|
B-----0/1------3-3-0/1-1-----------1-1------1-1----1-1---------------------------------------------|
G-----0/2----------------------0/2-2-2--0/2-2-2--0/2-2---------------------------------------------|
D-----0/2----------------------0/2-2-2--0/2-2-2--0/2-2---------------------------------------------|
A-----0----0-3-5---0/3----x7---0--------0--------0-------------------------------------------------|
E--------------------------------------------------------------------------------------------------|


E------7-7-7-7-3-5-7-5-3-3-5-5-5-5-5-5-3-5-7----5----3----5/7-5-3-3-3-1-0--------------------------|
B------0-0-0-0----------5--3-3-3-3-3-3-----8--8-7--7-5--5--------5--1----1-3-3-3-------------------|
G------0-0-0-0-------------0-0-0-0-0-0-----7-7--7-7--5-5------------2------2-2-2----0--------------|
D------5-5-5-5-------------5-5-5-5-5-5-------------------------------------------0-2-2-------------|
A------0-----0-------------------------------------------------------------------------------------|
E---------0----------------0--0--0---------8----7----5---------------------1-----------------------|


E------7-7-7-7-3-5-7-5-3-3-5-5-5-5-5-5-3-5-7----5----3----5/7-5-3-3-3-1-0--------------------------|
B------0-0-0-0----------5--3-3-3-3-3-3-----8--8-7--7-5--5--------5--1----1-3-3-3-------------------|
G------0-0-0-0-------------0-0-0-0-0-0-----7-7--7-7--5-5------------2------2-2-2----0--------------|
D------5-5-5-5-------------5-5-5-5-5-5-------------------------------------------0-2-2-------------|
A------0-----0-------------------------------------------------------------------------------------|
E---------0----------------0--0--0---------8----7----5---------------------1-----------------------|


E---------0-----0-----0----------------------------------------------------------------------------|
B-----0/1------3-3-0/1-1-----------1-1------1-1----1-1---------------------------------------------|
G-----0/2----------------------0/2-2-2--0/2-2-2--0/2-2---------------------------------------------|
D-----0/2----------------------0/2-2-2--0/2-2-2--0/2-2---------------------------------------------|
A-----0----0-3-5---0/3----x3---0--------0--------0-------------------------------------------------|
E--------------------------------------------------------------------------------------------------|


E------7-7-7-7-3-5-7-5-3-3-5-5-12-10--5-7-5-3-5-7----5----3----5/7-5-3-3-3-1-0---------------------|
B------0-0-0-0----------5--3-3-10--8--3-5-3-1-3-8--8-7--7-5--5--------5--1----1-3-3-3--------------|
G------0-0-0-0-------------0-0------------------7-7--7-7--5-5------------2------2-2-2----0---------|
D------5-5-5-5-------------5-5--------------------------------------------------------0-2-2--------|
A------0-----0-------------------------------------------------------------------------------------|
E---------0----------------0--0------0----------8----7----5--------------1------1------------------|


E------7-7-7-7-3-5-7-5-3-3-5-5-12-10--5-7-5-3-5-7----5----3----5/7-5-3-3-3-1-0---------------------|
B------0-0-0-0----------5--3-3-10--8--3-5-3-1-3-8--8-7--7-5--5--------5--1----1-3-3-3--------------|
G------0-0-0-0-------------0-0------------------7-7--7-7--5-5------------2------2-2-2--------------|
D------5-5-5-5-------------5-5---------------------------------------------------------------------|
A------0-----0---------------------------------------------------------------------------3-5/7-3-5-|
E---------0----------------0--0------0----------8----7----5--------------1------1-----3/5----------|


E---------5---------------------------------------------------8-8----------5-----------------------|
B--------5--7----7--7-7/8/7/5-7/8/7/5-4-4-4-7-7-7-10-10--10--10---10-8----5------------------------|
G-------5---7--7-7--7-7/8/7/5-7/8/7/5-5--5--8--8--11---11-----8----------5-------------------------|
D------7------0----0------------------4-----7-----10--------------------7--------------------------|
A-----0-----0----0----0------0-------0---------------------------------0---------------------------|
E-------------------------------------2-----5-----8----------11------------------------------------|


E-----8-8-7-5-4-4--4-2-2--2-4----3----2----1-------------------------------------------------------|
B-----6-6-----5-5-5--3-3-4--5--5-4--4-3--3-2--2----------------------------------------------------|
G-----5-5-----4-4----2-2----4-4--3-3--2-2--1-1-----------------------------------------------------|
D-----7-7-----6-6----4-4----6----5----4----3-------------------------------------------------------|
A-----5-------4------2------4----3----2----1-------------------------------------------------------|
E--------------------------------------------------------------------------------------------------|


E---------0-----0-----0----------------------------------------------------------------------------|
B-----0/1------3-3-0/1-1-----------1-1------1-1----1-1---------------------------------------------|
G-----0/2----------------------0/2-2-2--0/2-2-2--0/2-2---------------------------------------------|
D-----0/2----------------------0/2-2-2--0/2-2-2--0/2-2---------------------------------------------|
A-----0----0-3-5---0/3----x3---0--------0--------0-------------------------------------------------|
E--------------------------------------------------------------------------------------------------|
comments
We did not receive enough feedback on this tab! Please rate:
print report bad tab
1 2 3 4 5
I want to post or [tab]
guest
You may want to rate the tab now too:
select rating
Please do not post tabs as comments. Select "correction" instead!