Oops, an error
Loading. Please wait.

New Ride Tab

version 1
version 1

Whole song

2,665 views 1 this week
no commentswrite comment
1 2 3 4 5
please rate
add to favorites
launch autoscroll
font size
0
reset
how to read this tab
guitar tuner
Autoscroll
slow
fast
+/-
esc
set tempo
stop
Help us to improve Ultimate-Guitar.com Take our survey!
×
Got off her myspace. Posted by James Parker (brother of Louise)

Standard Tuning

Intro and Verse, Part 1: [sitting on the m25]
|---------------------------|
|---------------------------|
|--2--2--2--2---------------|
|--0--0--0--0---------------|
|-2--0----------------------|
|-------3--3----------------|  x7

Verse Part 2: [holding hands all day]
|---------------------------------|
|---------------------------------|
|---2----2----2----2--------------|
|--0-0--0-0--0-0--0-0-------------|
|-2----0--------------------------|
|------------3----3---------------|  x5

Chorus: [and i dont know]
|--------------------------|
|---3----3---3----3--------|
|--2-2-2-2-2--2-2-2--------|
|-0------------------------|
|-----2----0---------------|
|---------------3----------|  x2

When I say pick me apart,
and uncover my heart, it's yours
|-----------------|
|------7---5---3--|
|-2-4--7-- 6---4--|
|------0---0---0--|
|-----------------|
|-2-3--7---5---3--|

then it repeats itself!! easy as :)

http://www.josevanders.com/
Suggest correction
Give kudos to tab author, rate the tab!
1 2 3 4 5
comments
print report bad tab
guest
You may want to rate the tab now too:
select rating
Please do not post tabs as comments. Select "correction" instead!