Oops, an error
Loading. Please wait.

New Ride Tab

version 2
version 2

Whole song

1,451 views 1 this week
no commentswrite comment
1 2 3 4 5
please rate
add to favorites
launch autoscroll
font size
0
reset
how to read this tab
guitar tuner
Tab Pro tools
  • play this tab
  • loop segment
  • change instrument
  • show fretboard
  • metronome
Autoscroll
slow
fast
+/-
esc
set tempo
stop
------------------------|
------------------------|
---2-----2----2----2----|
---0-----0----0----0----|  x2
-2-----0----------------|
------------3----3------|

(Play through verse 1)

Verse 1:
Sitting on the M25
Got a packet of gum and a boy by my side
The window's rolled down to let the breeze in
Because it's quite hot and summer is the season
To feel alive
To feel alive

-------------------------------------|
-------------------------------------|
-----2--------2--------2--------2----|
---0---0----0---0----0---0----0---0--|
-2--------0--------------------------|
--------------------3-------3--------|

(Play through verse 2)

Verse 2:
Holding hands all day
Makes them quite clammy but it's all okay
Cos he, makes me smile
He makes me happy
Telling me I'm a beautiful girl
The most beautiful girl in the whole wide world

Chorus:
------------------------------------|
-----3--------3--------3--------3---|
---2---2----2---2----2---2----2---2-|
-0----------------------------------|
----------2--------0----------------|
----------------------------3-------|

And I don't know
If I'm just lucky to have
Found a person that understands me
When I say

---------------|
---------------|
-2-2--4--7-6-4-|
---------------|
---------------|
-2-2--3--7-5-3-|

Pick me apart
and uncover my heart

(just sing)
It's yours

------------------------|
------------------------|
---2-----2----2----2----|
---0-----0----0----0----|  x1
-2-----0----------------|
------------3----3------|

(Play through verses 3 & 4)

Verse 3:
Going round theme parks is well fun
When you've got the company of that special someone
You go on all the rides and they'll still be by your side
When the rollercoaster looks a bit too high

Verse 4:
Steal glasses from the 4D shows
Hide them in our jumpers and see how far we go
Put them on in the photo on nemesis inferno
Cos we're cool


Chorus:
------------------------------------|
-----3--------3--------3--------3---|
---2---2----2---2----2---2----2---2-|
-0----------------------------------|
----------2--------0----------------|
----------------------------3-------|

And I don't know
If I'm just lucky to have
Found a person that understands me
When I say

---------------|
---------------|
-2-2--4--7-6-4-|
---------------|
---------------|
-2-2--3--7-5-3-|

Pick me apart
and uncover my heart

------------------------|
------------------------|
---2-----2----2----2----|
---0-----0----0----0----|
-2-----0----------------|
------------3----3------|
It's yours
It's yours
comments
We did not receive enough feedback on this tab! Please rate:
print report bad tab
1 2 3 4 5
I want to post or [tab]
guest
You may want to rate the tab now too:
select rating
Please do not post tabs as comments. Select "correction" instead!