Oops, an error
Loading. Please wait.

Guantanamera Tab

version 1
version 1

Whole song

50,769 views 72 this week
no commentswrite comment
1 2 3 4 5
x 8
add to favorites
launch autoscroll
font size
0
reset
how to read this tab
guitar tuner
Autoscroll
slow
fast
+/-
esc
set tempo
stop
Help us to improve Ultimate-Guitar.com Take our survey!
×
Author
K this is a great world wide song so many ppl would like to play it, it think,
this tab is a really acurate one....oh i did not make this tab my dad learned it
by the time when we used to live in Cuba from other guy, well who cares here it goes.

Intro & whatever other part is it.

e|-----------------0-------2-------0-----0---------------------------------|
B|---------------2-------3-------0---0-----0-------------------------------|
G|-------------2-------2-------1-------0-----------------------------------|
D|-------------------0-----------------------------------------------------|
A|-----------0-------------------------------------------------------------|
E|--0--2--4------------------0---------------------------------------------|

Singing part

e|----0-0---2-2---0-0-0------------0-0---2-2---0-0-0-----------------------|
B|----2-2---3-3---0-0-0------------2-2---3-3---0-0-0-----------------------|
G|----2-2---2-2---1-1-1------------2-2---2-2---1-1-1-----------------------|
D|--------0----------------------------0-----------------------------------|
A|--0----------------------------0-----------------------------------------|
E|--------------0-------0--2--4--------------0-----------------------------|

        ...Guantanamera     Guajira    Guantanamera...

e|----------0-0-0--2-2-2--0-0-0-0-0-----0-0-0--2-2-2--0-0-0-0-0------------|
B|----------2-2-2--3-3-3--0-0-0-0-0-----2-2-2--3-3-3--0-0-0-0-0------------|
G|----------2-2-2--2-2-2--1-1-1-1-1-----2-2-2--2-2-2--1-1-1-1-1------------|
D|----------2-2-2--0-0-0--2-2-2-2-2-----2-2-2--0-0-0--2-2-2-2-2------------|
A|----------0-0-0---------2-2-2-2-2-----0-0-0---------2-2-2-2-2------------|
E|--0--2--4---------------0-0-0-0-0-------------------0-0-0-0-0------------|

There thats all the song i hope its right if anything please feel free to send a
irus to emono_mania@yahoo.com or better write something in the coments...oh
another thing if u didnt know the lyrics is a poem writen by Jose Marti the
national poet of Cuba, Fernandez just turn it in a big successful song.
Thanks again and enjoy!!!
Suggest correction
comments
print report bad tab
guest
You may want to rate the tab now too:
select rating
Wanna post a correction for this tab? Suggest correction