Oops, an error
Loading. Please wait.

Guantanamera Tab

version 3
version 3

Whole song

2,675 views 6 this week
no commentswrite comment
1 2 3 4 5
please rate
add to favorites
launch autoscroll
font size
0
reset
how to read this tab
guitar tuner
Autoscroll
slow
fast
+/-
esc
set tempo
stop
Help us to improve Ultimate-Guitar.com Take our survey!
×
Contributor
Tuning
me10 111
D A D G B E
Guantanamera

I was looking for a fingerpicking adaptation of this great song and couldn't find one, 
so tabbed this one with the help of a Youtube video.

This song has the same chord pattern (C F G F) throughout the whole song and you can 
have someone strumming lightly the chords while you fingerpick it.

Anyway I hope you enjoy it and here's the link to the Youtube video so you can have an 
idea of the rhythm.

http://www.youtube.com/watch?v=S69hLSXE2wc

Note it's Dropped D tuning so lower your E string to D.

Intro:

            C           F      G
E|---------------------------------------|
B|----------------1--------1-x-0---x-0---|
G|----------------0--------2-x-0---x-0---|
D|-------------2-----2--3----x-0---x-0---|
A|----0--2--3----------------x-----x-----|
D|-5-----------------------------5-------|


Chorus:

    C        F         G      F        C       F     G       F
E|------------------------------5---|----------3-3-----------------|
B|-10-10-----10-10-x-0---x-0--6---5-|--8-10----6-6-x-0---x-0---6-6-|
G|--9--9-----10-10-x-0---x-0--------|--9----9--0-0-x-0---x-0---4-4-|
D|-10-10-----10-10-x-0---x-0--------|-10-----------x-0---x-0---0-0-|
A|-----------------x-----x----------|--------------x-----x---------|
E|-10----10---0--------5------5-----|-10-------5-------5-----5-----|

   C         F   G       F       C        F   G     F
E|-0----1/3--5---3-------5-----|----------------------|
B|-1-----------x----x-0----6---|-1---1p0----x-0---x-0-|
G|---0--2/4--5-x-4--x-0------7-|-0---0----2-x-0---x-0-|
D|-------------x----x-0--------|---2------3-x-0---x-0-|
A|-3-----------x----x----------|-3--------0-x-----x---|
D|-----------0----5------5-----|----------------5-----|


Verse:

    C        F   G        F       C        F   G     F
E|------------------------5-----|----------------------|
B|-------8--10-x-0---x-0----6---|-1---1p0----x-0---x-0-|
G|--9-10----10-x-0---x-0------7-|-0---0----2-x-0---x-0-|
D|-------------x-0---x-0--------|---2------3-x-0---x-0-|
A|-----------0-x-----x----------|-3--------0-x-----x---|
D|-10--------------5------5-----|----------------5-----|

   C             F     G        F       C     F     G      F
E|------------------------------------|-0-------------------|
B|---3--3---3h1--3-3-x-0---x-0----5-6-|-1-1---3-3-x-0---x-0-|
G|-5----0---0----2-2-x-0---x-0--7-----|-0--0--2-2-x-0---x-0-|
D|--------2------3-3-x-0---x-0--------|-------3-3-x-0---x-0-|
A|------3--------0---x-----x----------|-3-----0---x-----x---|
D|-5---------------------5------5-----|---------------5-----|

   C       F                G        F       C        F   G     F
E|-----------------------------------5-----|----------------------|
B|---5-6---8--8-----8--10-x-0---x-0----6---|-1---1h0----x-0---x-0-|
G|-7-------9--9-----9--10-x-0---x-0------7-|-0---0----2-x-0---x-0-|
D|--------10-10----10--10-x-0---x-0--------|---2------3-x-0---x-0-|
A|----------------------0-x-----x----------|-3--------0-x-----x---|
D|-5------10----10------------5------5-----|----------------5-----|


Chorus:
Guantanamera
Guajira Guantanamera
Guantanamera
Guajira Guantanamera

Verse 1:
Yo soy un hombre sincero
De donde crecen las palmas
Yo soy un hombre sincero
De donde crecen las palmas
Y antes de morirme quiero
Echar mis versos del alma

Chorus

Verse 2:
Mi verso es de un verde claro
Y de un carmin encendido
Mi verso es de un verde claro
Y de un carmin encendido
Mi verso es un ciervo herido
Que busca en el monte amparo

Chorus
comments
We did not receive enough feedback on this tab! Please rate:
print report bad tab
1 2 3 4 5
I want to post or [tab]
guest
You may want to rate the tab now too:
select rating
Please do not post tabs as comments. Select "correction" instead!