Oops, an error
Loading. Please wait.

Luna Nueva Chords

23 views 1 this week
no commentswrite comment
1 2 3 4 5
3 more votes to show rating
add to favorites
×
Save as Personal and add changes to this tab that will be seen only by you. Learn more ›
×
You can save this tab as Personal to edit and correct it or add notes. All changes will be seen only by you. Learn more »
save as personal
new!
launch autoscroll
font size
0
reset
transpose
0
reset
simplify chords
display chords
guitar tuner
Autoscroll
slow
fast
+/-
esc
set tempo
stop
Strumming
There is no strumming pattern for this song yet. and get +5 IQ
   /D/ /C#-D/ /C-D/ /Em7_1/  /B7/ /Em7/ /A/  /D7/ /D7(2)/  /G/   /Bb/
e---2----2-----2------0-------2-----0----0----2-----3-------3-----1-----
b---3----3-----3------3-------4-----3----2----1-----1-------3-----3-----
g---2----2-----2------0-------2-----0----2----2-----2-------0-----3-----
d---0----0-----0------0-------4-----2----2----0-----0-------0-----3-----
a--------4-----3------2-------2-----2----0------------------2-----1-----
E---------------------0-------------0-----------------------3-----------

Intro:
    /D/
e---------0^2-0^2--0-^2--2--2------------0^2--0^2---
b---------3---3----3--3--3--3------------3----3-----
g----2-2--2---2----2--------------2--2---2----2-----
d----0-0--------------------------0--0--------------
a---------------------------------------------------
E---------------------------------------------------


           /D/
No habrá más luna llena,
      /C#-D/
no la veremos más,
/C-D/                      /Em7_1/ /B7/
nos deja a ciegas y se va.
                /Em7/      /A/
No esperes que vuelva,
           /D/ /D7/ /D7(2)/ /D/
no volverá.

/D/

Ya es luna nueva,
      /C#-D/
ahora que no la ves
/C-D/                       /Em7_1/ /B7/
sin más problemas te la crees.
                  /Em7/      /A/
Creerás lo que puedas,
          /D/ /D7/ /D7(2)/ /D/
acuérdate.

/Em7/
Ya no te perderás afuera
      /A/
en la luna nueva,
/Em7/              /A/
casi como volar.
/Em7/
Nunca te perderás
          /A/
debajo de las estrellas.

/Em7/        /A/ /A=x02222/

/D/
¿Qué es lo que esperas?
/C#-D/
No esperes más,
/C-D/                         /Em7_1/ /B7/
es un poco tarde para esperar.
            /Em7/      /A/
Todas las estrellas
            /D/ /D7/ /D7(2)/ /D/
contigo van.

/Em7/             /G/
Es mejor no correr
                       /D/
¿Hacia dónde? ¿Para qué?
          /D7/    /D7(2)/
¿Con quien?
/Em7/               /Bb/
Es mejor sin gritar,
                   /Em7/   /A/ /A=x02222/
deberías saberlo ya.


/D/
¿Qué es lo que esperas?
/C#-D/
No esperes más,
/C-D/                        /Em7_1/ /B7/
es un poco tarde para esperar.
            /Em7/      /A/
Todas las estrellas
           /D/ /D7/ /D7(2)/ /D/
contigo van.

/Em7/             /G/
Es mejor no correr
                       /D/
¿Hacia dónde? ¿Para qué?
          /D7/    /D7(2)/
¿Con quien?
/Em7/               /Bb/
Es mejor sin gritar,
                  /Em7/   /A/ /A=x02222/
deberías saberlo ya.

          /Em7/   /A/
Todas las estrellas
           /D/    /D7/
contigo van.
             /Em7/
Aún queda candela,
/A/               /D/ Repite Intro.
para qué esperar.


ByEN3MIGO.
Otra joya.
Suggest correction
Give kudos to tab author, rate the tab!
1 2 3 4 5
comments
print report bad tab
guest
Wanna post a correction for this tab? Suggest correction