Oops, an error
Loading. Please wait.

Eyes To The Sky Live chords

by Joseph
1,381 views 12 this week
no commentswrite comment
1 2 3 4 5
1 last vote to show rating
add to favorites
×
Save as Personal and add changes to this tab that will be seen only by you. Learn more ›
×
You can save this tab as Personal to edit and correct it or add notes. All changes will be seen only by you. Learn more »
launch autoscroll
font size
0
reset
transpose
0
reset
simplify chords
display chords
guitar tuner
edit
Autoscroll
slow
fast
+/-
esc
set tempo
stop
Strumming
There is no strumming pattern for this song yet. and get +5 IQ
This is a great tune off of Native Dreamer Kin (the final track) that
is good for beginners. This isn't exactly the way it is played on the
album (this is in F, while the album version is in E). The song is in 6/8.
I've tried to capture the way they play it live here. Strumming is basic
eighth-note pattern. All chords are shown relative to capo.

Capo: 3rd Fret (2nd fret for album)

[Intro]

1st part
e|-----------------------------------------------------|
B|-----------------------------------------------------|
G|-----------------------------------------------------|
D|-4---2-0-----------0-----4---2-0------------0--------|
A|-------------0---2-------------------0h2-------------|
E|-----------------------------------------------------|

2nd part (more obvious in the album)
e|-----------------------------------------------------|
B|-----------------------------------------------------|
G|-----------------------------------------------------|
D|-------0-----------2h4---------0-----2------0--------|
A|-0---2-------0---2-------0---2-----------------------|
E|-----------------------------------------------------|


[Verse]

 D/F#       D/E         D         D/A      D/B       D

e|-2----------2----------2----------2--------2--------2----|
B|-3----------3----------3----------3--------3--------3----|
G|-2----------2----------2----------2--------2--------2----|
D|-4----------2----------0----------0--------0--------0----|
A|-x----------x----------x----------0--------2--------0----|
E|-x----------x----------x----------x--------x--------x----|


[Chorus]

 G/C        G/B         G         D/A

e|-3----------3----------3----------2----|
B|-3----------3----------3----------3----|
G|-0----------0----------0----------2----|
D|-0----------0----------0----------0----|
A|-3----------2----------x----------0----|
E|-x----------x----------3----------x----|


[Lyrics]

D/F# D/E D    D/A D/B D
Sun come down on me now.
D/F#  D/E  D         D/A  D/B  D
Warm this cold, cold heart of mine.
D/F#  D/E  D      D/A  D/B  D
Troubles come and troubles go.
D/F#  D/E  D           D/A D/B  D
May I see light through tired eyes.

[Instrumental]

       G/C    G/B         G           D/A
I will lift up my eyes to the sky, to the sky,
       G/C    G/B         G           D/A
I will lift up my eyes to the sky, to the sky,
       G/C    G/B         G           D/A
I will lift up my eyes to the sky, to the sky,
       G/C    G/B         G           D/A
I will lift up my eyes to the sky, to the sky,

[Instrumental]

D/F# D/E D        D/A D/B D
Give me grace and give me peace
D/F#  D/E  D          D/A D/B   D
Through my pain and suffering.
D/F#      D/E D         D/A   D/B  D
Be a constant fire that draws me higher
D/F#        D/E  D              D/A D/B   D
Burn up the despair that's been sinking me,
D/F#        D/E  D              D/A D/B   D
Burn up the despair that's been sinking me,
D/F#        D/E  D              D/A D/B   D
Burn up the despair that's been sinking me,

       G/C    G/B         G           D
I will lift up my eyes to the sky, to the sky,
       G/C    G/B         G           D
I will lift up my eyes to the sky, to the sky,
       G/C    G/B         G           D
I will lift up my eyes to the sky, to the sky,
       G/C    G/B         G           D
I will lift up my eyes to the sky, to the sky.


[Instrumental]

D/F#      D/E D         D/A   D/B  D
Be a constant fire that draws me higher,
D/F#        D/E  D              D/A D/B   D
Burn up the despair that's been sinking me,
D/F#        D/E  D              D/A D/B   D
Burn up the despair that's been sinking me,
D/F#        D/E  D              D/A D/B   D
Burn up the despair that's been sinking me.

            
            
Suggest correction
Creating personal tab
Creating personal tab
You can edit any tab online and save it as your Personal.

You can edit, replace or remove any tab part or add personal notes – all changes will be seen only by you.

Personal tabs can be accessed anytime from any device, even offline.
Learn more »
Give kudos to tab author, rate the tab!
1 2 3 4 5
comments
print report bad tab
guest
You may want to rate the tab now too:
select rating
Wanna post a correction for this tab? Suggest correction