Oops, an error
Loading. Please wait.

Hundred Ways tab

by Joseph
547 views 30 this week
no commentswrite comment
1 2 3 4 5
x 3
add to favorites
×
Save as Personal and add changes to this tab that will be seen only by you. Learn more ›
×
You can save this tab as Personal to edit and correct it or add notes. All changes will be seen only by you. Learn more »
launch autoscroll
font size
0
reset
how to read this tab
guitar tuner
edit
Autoscroll
slow
fast
+/-
esc
set tempo
stop
About this tab version
Tab and chords of the song, including the intro riffs and chords through out and specifics of how to play. Was this info helpful? Yes No
Capo 2

Chords played as;

(generally only the bottom for strings are strummed)

G - 355000
A - 577000
B - 799000
Em- 022000

[Intro/Verse Riff]
e|-----------------------------------------------------------------|
B|-----------------------------------------------------------------|
G|-------4-----4-----7-----7------7-----6-----6-----2-----2------2-|
D|-----------------------------------------------------------------|
A|-----------------------------------------------------------------|
E|-----3-----3----7-----7------7-----5-----5------2-----2------2---|

e|-----------------------------------------------------------------|
B|-----------------------------------------------------------------|
G|-------4-----4-----7-----7------7-----6~~~-----------------------|
D|-----------------------------------------------------------------|
A|-----------------------------------------------------------------|
E|-----3-----3----7-----7------7-----5~~~~-------------------------|

[Verse 1]
I don't know where this is, I don't know where to go
Tell me where the mind fell off and the body slowed
Creatures running 'round the field off into the woods
My body wants to follow, but I really don't think it should

[Pre-Chorus]    
(Slightly Palm Muted) 
   G            A
I don't know, I don't know
          B              Em
And I'm tired of trying to fake it
  G              A
I don't know, I don't know
  B              B
Maybe that's the way you make it

[Chorus] 
(Play more open)
   G                       A
Don't know what to say, don't know what to do
   B                      Em
Split a hundred ways, when I'd really like to follow you
    G                   A 
Creatures gonna run, people gonna move
   B                        Em
I don't really know what I'm getting myself into
G        A          B          Em
oooooooohh      ooooooohhhhhh
G        A             Em (Single stroke let ring) 
ooooooooohhh    ooooooooooooohhh

e|-----------------------------------------------------------------|
B|-----------------------------------------------------------------|
G|-------4-----4-----7-----7------7-----6-----6-----2-----2------2-|
D|-----------------------------------------------------------------|
A|-----------------------------------------------------------------|
E|-----3-----3----7-----7------7-----5-----5------2-----2------2---|

               These are the times

e|-----------------------------------------------------------------|
B|-----------------------------------------------------------------|
G|-------4-----4-----7-----7------7-----6-----6-------5------------|
D|-----------------------------------------------------------------|
A|-----------------------------------------------------------------|
E|-----3-----3----7-----7------7-----5-----5-----6-----------------|

          When going up is not a straight line

e|-----------------------------------------------------------------|
B|-----------------------------------------------------------------|
G|-------4-----4-----7-----7------7-----6-----6-----2-----2------2-|
D|-----------------------------------------------------------------|
A|-----------------------------------------------------------------|
E|-----3-----3----7-----7------7-----5-----5------2-----2------2---|

               These are the times

e|------------------------------------|
B|------------------------------------|
G|-------4-----4-----7-----7------7---|
D|------------------------------------|
A|------------------------------------|
E|-----3-----3----7-----7------7------|   G~ (single downward strums increasing in volume)

          When going up is not a straight line

  G    A    B     Em 
These are the times
G       A       B      Em                (continue this same Chord prgression for the Harmonies) 
When going up is not a straight line
G         A        B       Em
I cannot tell
G         A         B         G~  (single downward strums increasing in volume)
If this way goes toward heaven or hell

[Pre-Chorus]    
(Slightly Palm Muted) 
   G            A
I don't know, I don't know
          B              Em
And I'm tired of trying to fake it
  G              A
I don't know, I don't know
  B              B
Maybe that's the way you make it

[Chorus] 
(Play more open)
   G                       A
Don't know what to say, don't know what to do
   B                      Em
Split a hundred ways, when I'd really like to follow you
    G                   A 
Creatures gonna run, people gonna move
   B                        Em
I don't really know what I'm getting myself into
   G                       A
Don't know what to say, don't know what to do
   B                      Em
Split a hundred ways, when I'd really like to follow you
    G                   A 
Creatures gonna run, people gonna move
   B                        Em
I don't really know what I'm getting myself into

[Outro] 
e|-----------------------------------------------------------------|
B|-----------------------------------------------------------------|
G|-------4-----4-----7-----7------7-----6-----6-----2-----2------2-|
D|-----------------------------------------------------------------|
A|-----------------------------------------------------------------|
E|-----3-----3----7-----7------7-----5-----5------2-----2------2---|

e|-----------------------------------------------------------------|
B|-----------------------------------------------------------------|
G|-------4-----4-----7-----7------7-----6~~~-----------------------|
D|-----------------------------------------------------------------|
A|-----------------------------------------------------------------|
E|-----3-----3----7-----7------7-----5~~~~-------------------------|
oooooohhhh aaaahaahahaa


************************************

| ~  Vibrato

************************************

            
            
Suggest correction
Creating personal tab
Creating personal tab
You can edit any tab online and save it as your Personal.

You can edit, replace or remove any tab part or add personal notes – all changes will be seen only by you.

Personal tabs can be accessed anytime from any device, even offline.
Learn more »
Give kudos to tab author, rate the tab!
1 2 3 4 5
comments
print report bad tab
guest
You may want to rate the tab now too:
select rating
Wanna post a correction for this tab? Suggest correction