Oops, an error
Loading. Please wait.

Whirlwind tab

by Joseph
682 views 21 this week
no commentswrite comment
1 2 3 4 5
2 more votes to show rating
add to favorites
×
Save as Personal and add changes to this tab that will be seen only by you. Learn more ›
×
You can save this tab as Personal to edit and correct it or add notes. All changes will be seen only by you. Learn more »
launch autoscroll
font size
0
reset
how to read this tab
guitar tuner
edit
Autoscroll
slow
fast
+/-
esc
set tempo
stop
[Intro]
 
   Dm                             F  
e|----1------1------1------1------------------------------|
B|----3------3------3------3----------1------------1------|
G|--2---2--2---2--2---2--2---2--------2------------2------|
D|-0------0------0------0----------3------3-----3-----3---|
A|--------------------------------------------------------|
E|-------------------------------1-----------1------------|
   G 
e|--------------------------------------------------------|
B|------0-------------------------------------------------|
G|------0-------------------------------------------------|
D|---0-----0----3---3---0---------------------------------|
A|--------------------------------------------------------|
E|-3------------3---3---3---------------------------------|


[Chorus]

Whilrwind
Let me breathe you in

   Dm                             F  
e|----1------1------1------1------------------------------|
B|----3------3------3------3----------1------------1------|
G|--2---2--2---2--2---2--2---2--------2------------2------|
D|-0------0------0------0----------3------3-----3-----3---|
A|--------------------------------------------------------|
E|-------------------------------1-----------1------------|
   G 
e|--------------------------------------------------------|
B|------0-------------------------------------------------|
G|------0-------------------------------------------------|
D|---0-----0----3---3---0---------------------------------|
A|--------------------------------------------------------|
E|-3------------3---3---3---------------------------------| X2


[Verse]

 Dm 
Whirlwind
                           C 
This is where you start to pull me in
                        G 
I hear a voice that is whispering
       Am        Dm 
In the whirlwind

 Dm 
Let it be
                       C 
Let your thunder roll over me
                         G 
You're not safe and I'm shaking
               Am        Dm 
What are you, whirlwind?

[Chorus]

Whilrwind
Let me breathe you in

   Dm                             F  
e|----1------1------1------1------------------------------|
B|----3------3------3------3----------1------------1------|
G|--2---2--2---2--2---2--2---2--------2------------2------|
D|-0------0------0------0----------3------3-----3-----3---|
A|--------------------------------------------------------|
E|-------------------------------1-----------1------------|
   G 
e|--------------------------------------------------------|
B|------0-------------------------------------------------|
G|------0-------------------------------------------------|
D|---0-----0----3---3---0---------------------------------|
A|--------------------------------------------------------|
E|-3------------3---3---3---------------------------------| X2


[Verse]
 Dm 
Bright lights
                    C 
Split the sky as I close my eyes
                        G 
I feel the breath of a thousand lives
        Am       Dm 
In the whirlwind

 Dm 
Dark skies
                          C 
I look around, can't see through the night
           G 
Invisible foes
     Am      Dm 
Are hard to find

[Chorus]

Whilrwind
Let me breathe you in

   Dm                             F  
e|----1------1------1------1------------------------------|
B|----3------3------3------3----------1------------1------|
G|--2---2--2---2--2---2--2---2--------2------------2------|
D|-0------0------0------0----------3------3-----3-----3---|
A|--------------------------------------------------------|
E|-------------------------------1-----------1------------|
   G 
e|--------------------------------------------------------|
B|------0-------------------------------------------------|
G|------0-------------------------------------------------|
D|---0-----0----3---3---0---------------------------------|
A|--------------------------------------------------------|
E|-3------------3---3---3---------------------------------| X2


[Bridge]

 G 
Have you heard the mallet's drumming thunder
 Dm 
Or filled the clouds with rain?
 G 
Have you opened up the skies above you
 Dm 
And seen a desert's wake?
 G 
Have you given orders to the morning
 Dm 
Or shown the dawn its place?
 G 
Can you grab hold of the earth's four corners
 hold 
And shake shake shake out the darkness

 Chorus  X2

Whilrwind
Let me breathe you in

   Dm                             F  
e|----1------1------1------1------------------------------|
B|----3------3------3------3----------1------------1------|
G|--2---2--2---2--2---2--2---2--------2------------2------|
D|-0------0------0------0----------3------3-----3-----3---|
A|--------------------------------------------------------|
E|-------------------------------1-----------1------------|
   G 
e|--------------------------------------------------------|
B|------0-------------------------------------------------|
G|------0-------------------------------------------------|
D|---0-----0----3---3---0---------------------------------|
A|--------------------------------------------------------|
E|-3------------3---3---3---------------------------------| X2
Suggest correction
Creating personal tab
Creating personal tab
You can edit any tab online and save it as your Personal.

You can edit, replace or remove any tab part or add personal notes – all changes will be seen only by you.

Personal tabs can be accessed anytime from any device, even offline.
Learn more »
Give kudos to tab author, rate the tab!
1 2 3 4 5
comments
print report bad tab
guest
You may want to rate the tab now too:
select rating
Wanna post a correction for this tab? Suggest correction