Oops, an error
Loading. Please wait.

Honey And The Moon chords

version 1
version 1

Whole song

Interactive

89,999 views 60 this week
4 commentsread comments
1 2 3 4 5
x 20
add to favorites
×
Save as Personal and add changes to this tab that will be seen only by you. Learn more ›
×
You can save this tab as Personal to edit and correct it or add notes. All changes will be seen only by you. Learn more »
launch autoscroll
font size
0
reset
transpose
0
reset
display chords
guitar tuner
edit
Autoscroll
slow
fast
+/-
esc
set tempo
stop
Author
Strumming
There is no strumming pattern for this song yet. and get +5 IQ
super song off the O.C soundtrack
Tuning:standard


[Verse]

    C       G        F        G        Am             Em
e|--0-------3--------1--------3---------0-------------0--------------------|
B|--1-------3--------1--------3---------1-------------0--------------------|
G|--0-------0--------2--------4---------2-------------0--------------------|
D|--2-------0--------3--------5---------2-------------2--------------------|
A|--3-------2--------3--------5---------0-------------2--------------------|
E|--0-------3--------1--------3---------0-------------0--------------------|


[Chorus]

     F           G        Am
e|---1-----------3---------0-----------|
B|---1-----------3---------1-----------|
G|---2-----------4---------2-----------|
D|---3-----------5---------2-----------|
A|---3-----------5---------0-----------|
E|---1-----------3---------0-----------|(x3)

..right       now         everything you want it wrong
..and right now the sun is trying to steal the moon
..and right now i wish i could follow you.....

    Em                   G                  C
e|---0-------------------3------------------0------------------------------|
B|---0-------------------3------------------1------------------------------|
G|---0-------------------4------------------0------------------------------|
D|---2-------------------5------------------2------------------------------|
A|---2-------------------5------------------3------------------------------|
E|---0-------------------3------------------0------------------------------|
...to the shores      of freedom          where no one lives


(repeat verse)

C                   G
Don't know why I'm still afraid        
F                   G                Am
If you weren't real I would make you up
Em
now
C                    G              
I wish that I could follow through
F                G               
I know that your love is true
      Am
And deep
  Em
As the sea
F          G
But right now
Am
Everything you want is wrong,
F          G
And right now
Am
All your dreams are waking up,
F          G
And right now
Am
I wish I could follow you
Em
To the shores
G
Of freedom,
C
Where no one lives.


(REPEAT AS ABOVE)

Remember when we first met
And everything was still a bet
In love's game
You would call; I'd call you back
And then I'd leave
A message
On your answering machine

But right now
Everything is turning blue,
And right now
The sun is trying to kill the moon,
And right now
I wish I could follow you
To the shores
Of freedom,
Where no one lives

Freedom
Run away tonight
Freedom, freedom
Run away
Run away tonight

We're made out of blood and rust
Looking for someone to trust
Without 
A fight
I think that you came too soon
You're the honey and the moon
That lights
Up my night

But right now
Everything you want is wrong,
And right now
All your dreams are waking up,
And right now
I wish that I could follow you
To the shores
Of freedom
Where no one lives

Freedom
Run away tonight
Freedom freedom
Run away
Run away tonight

We got too much time to kill
Like pigeons on my windowsill
We hang around

Ever since I've been with you
You hold me up
All the time I've falling down

But right now
Everything is turning blue,
And right now
The sun is trying to kill the moon,
And right now
I wish I could follow you
To the shores
Of freedom
Where no one lives

            
            
Suggest correction
Creating personal tab
Creating personal tab
You can edit any tab online and save it as your Personal.

You can edit, replace or remove any tab part or add personal notes – all changes will be seen only by you.

Personal tabs can be accessed anytime from any device, even offline.
Learn more »
comments
print report bad tab
4 comments total. Showing first comments.
+3 reply
yasmin.a 10 Apr 24, 2007 08:38 AM

capo on 7th, good tab!

+1 reply
doeadeer 41 Jan 14, 2010 03:38 AM

i think maybe i can add a bit to this. chord wise:

F G
But right now
C Eminor
Everything you want is wrong,
F G
And right now
C E minor
All your dreams are waking up,
F G
And right now
C Eminor
I wish I could follow you
A minor
To the shores
G
Of freedom,
C
Where no one lives.

Freedom
Aminor Eminor
Run away tonight
C
Freedom, freedom
Aminor
Run away
Aminor Eminor
Run away tonight

that's just how I play it.sounds good either way though

0 reply
doeadeer 41 Jan 14, 2010 03:41 AM

woops forgot a chord:

Aminor
Freedom
Aminor Eminor
Run away tonight

guest
You may want to rate the tab now too:
select rating
Wanna post a correction for this tab? Suggest correction