Oops, an error
Loading. Please wait.

Its Like Rain Tab

version 1
version 1

Whole song

1,930 views 1 this week
no commentswrite comment
1 2 3 4 5
please rate
add to favorites
launch autoscroll
font size
0
reset
how to read this tab
guitar tuner
Autoscroll
slow
fast
+/-
esc
set tempo
stop
Help us to improve Ultimate-Guitar.com Take our survey!
×
Difficulty
intermediate
Artist: Josephine Collective
Song: It's Like Rain
Album: Demos 2006
Tabbed by: Bee Hall ~ reebee_is_me@yahoo.com

Tuning: Standard | E~A~D~G~B~e

CAPO ON SECOND FRET!

The tab is done in relation to the capo.

Listen to the song for the strumming patterns and for when and how many times you play each riff.

Main Riff:

e|--3-3-3--3--3--3--3--3-3-----0-0-0--0--0--0--0--0-0----|
B|--5-5-5--5--5--5--5--5-5-----5-5-5--5--5--5--5--5-5----|
G|--5-5-5--5--5--5--5--5-5-----5-5-5--5--5--5--5--5-5----|
D|--5-5-5--5--5--5--5--5-5-----5-5-5--5--5--5--5--5-5----|
A|-------------------------------------------------------|
E|-------------------------------------------------------|

e|-------------------------------------------------------|
B|--3-3-3--3--3--3--3--3-3-----3-3-3--3--3--3--3--3-3----|
G|--5-5-5--5--5--5--5--5-5-----5-5-5--5--5--5--5--5-5----|
D|--5-5-5--5--5--5--5--5-5-----3-3-3--3--3--3--3--3-3----|
A|-------------------------------------------------------|
E|-------------------------------------------------------|



Interlude:
Part 1:

e|-----------12-10-------------12-10----10-----|
B|--------10-------10-------10-------10--------|
G|-----11----------------11--------------------|
D|--12----------------12-----------------------|
A|---------------------------------------------|
E|---------------------------------------------|

Part 2:

e|-----------12-10-------------12-10-----------|
B|--------10-------10-------10-------10--------|
G|-----11----------------11--------------------|
D|--12----------------12-----------------------|
A|---------------------------------------------|
E|---------------------------------------------|

Part 3:

e|-----------12-10-----10-10-------------------|
B|--------10-------10--10-10-------------------|
G|-----11--------------11-11-------------------|
D|--12-----------------12-12-------------------|
A|---------------------------------------------|
E|---------------------------------------------|


Feeling fine...
Suggest correction
Give kudos to tab author, rate the tab!
1 2 3 4 5
comments
print report bad tab
guest
You may want to rate the tab now too:
select rating
Please do not post tabs as comments. Select "correction" instead!