Oops, an error
Loading. Please wait.

We Killed The American Dream Tab

703 views 1 this week
1 commentread comment
1 2 3 4 5
please rate
add to favorites
launch autoscroll
font size
0
reset
how to read this tab
guitar tuner
Autoscroll
slow
fast
+/-
esc
set tempo
stop
Help us to improve Ultimate-Guitar.com Take our survey!
×
Author
Difficulty
Now this is is standard tuning

standard tuning=EADGBE

Intro

E\-x--x--x--x-x--x--x
B\-x--x--x--x-x--x--x         
G\-10-10-10-x-10-10-10       Repeat 10 
D\-10-10-10-x-10-10-10
A\-8--8--8--x-8--8--8
E\-8--8--8--x-8--8--8

E\-x--x--x--x-x--x--x--x--x
B\-x--x--x--x-x--x--x--x--x
G\-10-10-10-x-10-10-6--6--6
D\-10-10-10-x-10-10-6--6--6
A\-8--8--8--x-8--8--4--4--4
E\-8--8--8--x-8--8--4--4--4

___________________________________
Verse

E\-------------------------------------------------|
B\-------------------------------------------------|
G\-------------------------3-----------------------|(Repeat 2)
D\-8-----------4-----------3(repeat 4)-4-----------|
A\-8(repeat 4)-4(repeat 4)-1-----------4(repeat 4)-|
E\-6-----------2-----------------------2-----------|

Palm mute this                          REPEAT THIS BELOW 2
                                          CHORUS BELOW
                                               
E\---------------------------------|---------------------|
B\---------------------------------|---------------------|
G\---------------------------------|-6-6-6-6-6-----------|
D\-4-4-4-4/6-6-6-6/8-8-8-8/9-9-9-9-|-6-6-6-6-6-4-4-4-4-4-|
A\-4-4-4-4/6-6-6-6/8-8-8-8/9-9-9-9-|-4-4-4-4-4-4-4-4-4-4-|
E\-2-2-2-2/4-4-4-4/6-6-6-6/7-7-7-7-|-----------2-2-2-2-2-|

Repeat intro 1
Repeat Verse

E\----------------------------|
B\----------------------------|
G\----------------------------|
D\-8-------------4------------|
A\-8(Repeat 6)---4(Repeat 6)--|
E\-6-------------2------------|

Repeat Chorus

acustic part

E\-2-2-2---1-1-1-1-|
B\-2-2-2---2-2-2-2-|
G\-3-3-3---3-3-3-3-|
D\-4-4-4---3-3-3-3-|
A\-4-4-4---1-1-1-1-|
E\-2-2-2---x-x-x-x-|

palm mute
Figure out the strum pattern

E\------------|
B\------------|
G\-6----------|
D\-6--4--11-4-|
A\-4--4--11-4-|
E\----2--9--2-|

E\----------------------------|
B\----------------------------|
G\----------------------------|
D\-8-------------4------------|
A\-8(Repeat 6)---4(Repeat 6)--|
E\-6-------------2------------|

Repeat chorus

Repeat intro
Suggest correction
What's this?
You can suggest a correction to this tab. Community and Mods will review your correction and vote to approve or reject it.
comments
We did not receive enough feedback on this tab! Please rate:
print report bad tab
1 2 3 4 5
1 comment total.
0 reply
athsmador 568 wrote on July 10 2008, 08:44 pm

good try

they dont play standard and the main thing sound horrible
you basically nailed the rest tho

guest
You may want to rate the tab now too:
select rating
Please do not post tabs as comments. Select "correction" instead!