Oops, an error
Loading. Please wait.

Little Blue tab

3,171 views 3 this week
no commentswrite comment
1 2 3 4 5
x 3
add to favorites
×
Save as Personal and add changes to this tab that will be seen only by you. Learn more ›
×
You can save this tab as Personal to edit and correct it or add notes. All changes will be seen only by you. Learn more »
launch autoscroll
font size
0
reset
how to read this tab
guitar tuner
edit
Autoscroll
slow
fast
+/-
esc
set tempo
stop
Feel free to email with any questions: jonyoyoman@gmail.com

Capo: 4th Fret, only on bottom five strings

All tab relative to Capo other than low E string: the bottom line.

Chords in "()" means that it is a half measure. Chords outside of "()" means whole measure.




Intro:


   C                   G                   F              (C           G)
|------0---3---3-----------3---1---0-----------3---------------0--------------|
|--------1---1---0-----------0---0---0-------------------------------1--------|
|----0---------------0---0---------------0---0---0---0-------0---0------------|
|--2---------------2---0---------------0-----------0-------2-------2-------0--|
|--3---------------3---2---------------2---------------3-2-3-------------2----|
|--0---------------0---7---------------7---5-----------0-0-0-----------7------|


   C                   G                   F              (C           G)
|------0---3---3-----------3---1---0-----------3---------------0--------------|
|--------1---1---0-----------0---0---0-------------------------------1--------|
|----0---------------0---0---------------0---0---0---0-------0---0------------|
|--2---------------2---0---------------0-----------0-------2-------2-------0--|
|--3---------------3---2---------------2---------------3-2-3-------------2----|
|--0---------------0---7---------------7---5-----------0-0-0-----------7------|




Verse:


   C                   G                   F              (C           G)
|------0---3---3-----------3---1---0-----------3---------------0--------------|
|--------1---1---0-----------0---0---0-------------------------------1--------|
|----0---------------0---0---------------0---0---0---0-------0---0------------|
|--2---------------2---0---------------0-----------0-------2-------2-------0--|
|--3---------------3---2---------------2---------------3-2-3-------------2----|
|--0---------------0---7---------------7---5-----------0-0-0-----------7------|


   C                   G                   F               C
|------0---3---3-----------3---1---0-----------3---------------0------------0--------|
|--------1---1---0-----------0---0---0-------------------------------1------------1--|
|----0---------------0---0---------------0---0---0---0-------0---0--------0---0------|
|--2---------------2---0---------------0-----------0-------2-------2----2-------2----|
|--3---------------3---2---------------2---------------3-2-3------------3------------|
|--0---------------0---7---------------7---5-----------0-0-0------------0------------|




Pre-Chorus:


     F                             C                     (G        F)       C
|----------0----12----12------------------3---3-3p0-----------------------------0-----------0-------|
|------------10----10----10--10---------1---1-------1---1-----0-------0---------------1-----------1-|
|--------0--------------------------------------------------0----0---0---0----0---0-------0---0-----|
|--2\11--------------------11---11/2-2----------------2---0-----------------2-------2---2-------2---|
|--3\12--------------------12---12/3-3----------------3---2-----------------3-----------3-----------|
|--0------------------------0----0---0----------------0---7--------5--------0-----------0-----------|


     F                             C                     (G        F)      (C           G)
|----------0----12----12------------------3---3-3p0-----------------------------0------------|
|------------10----10----10--10---------1---1-------1---1-----0-------0---------------1------|
|--------0--------------------------------------------------0----0---0---0----0---0----------|
|--2\11--------------------11---11/2-2----------------2---0-----------------2-------2-----0--|
|--3\12--------------------12---12/3-3----------------3---2-----------------3------------2---|
|--0------------------------0----0---0----------------0---7--------5--------0-----------7----|




Chorus:


   C                   G                   F              (C           G)
|------0---3---3-----------3---1---0-----------3---------------0--------------|
|--------1---1---0-----------0---0---0-------------------------------1--------|
|----0---------------0---0---------------0---0---0---0-------0---0------------|
|--2---------------2---0---------------0-----------0-------2-------2-------0--|
|--3---------------3---2---------------2---------------3-2-3-------------2----|
|--0---------------0---7---------------7---5-----------0-0-0-----------7------|


   C                   G                   F              (C           G)
|------0---3---3-----------3---1---0-----------3---------------0--------------|
|--------1---1---0-----------0---0---0-------------------------------1--------|
|----0---------------0---0---------------0---0---0---0-------0---0------------|
|--2---------------2---0---------------0-----------0-------2-------2-------0--|
|--3---------------3---2---------------2---------------3-2-3-------------2----|
|--0---------------0---7---------------7---5-----------0-0-0-----------7------|




Verse 2:


   C                   G                   F              (C           G)
|------0---3---3-----------3---1---0-----------3---------------0--------------|
|--------1---1---0-----------0---0---0-------------------------------1--------|
|----0---------------0---0---------------0---0---0---0-------0---0------------|
|--2---------------2---0---------------0-----------0-------2-------2-------0--|
|--3---------------3---2---------------2---------------3-2-3-------------2----|
|--0---------------0---7---------------7---5-----------0-0-0-----------7------|


   C                   G                   F               C
|------0---3---3-----------3---1---0-----------3---------------0------------0--------|
|--------1---1---0-----------0---0---0-------------------------------1------------1--|
|----0---------------0---0---------------0---0---0---0-------0---0--------0---0------|
|--2---------------2---0---------------0-----------0-------2-------2----2-------2----|
|--3---------------3---2---------------2---------------3-2-3------------3------------|
|--0---------------0---7---------------7---5-----------0-0-0------------0------------|




Pre-Chorus:


     F                             C                     (G        F)       C
|----------0----12----12------------------3---3-3p0-----------------------------0-----------0-------|
|------------10----10----10--10---------1---1-------1---1-----0-------0---------------1-----------1-|
|--------0--------------------------------------------------0----0---0---0----0---0-------0---0-----|
|--2\11--------------------11---11/2-2----------------2---0-----------------2-------2---2-------2---|
|--3\12--------------------12---12/3-3----------------3---2-----------------3-----------3-----------|
|--0------------------------0----0---0----------------0---7--------5--------0-----------0-----------|


     F                             C                     (G        F)      (C           G)
|----------0----12----12------------------3---3-3p0-----------------------------0------------|
|------------10----10----10--10---------1---1-------1---1-----0-------0---------------1------|
|--------0--------------------------------------------------0----0---0---0----0---0----------|
|--2\11--------------------11---11/2-2----------------2---0-----------------2-------2-----0--|
|--3\12--------------------12---12/3-3----------------3---2-----------------3------------2---|
|--0------------------------0----0---0----------------0---7--------5--------0-----------7----|




Chorus & Ending:


   C                   G                   F              (C           G)
|------0---3---3-----------3---1---0-----------3---------------0--------------|
|--------1---1---0-----------0---0---0-------------------------------1--------|
|----0---------------0---0---------------0---0---0---0-------0---0------------|
|--2---------------2---0---------------0-----------0-------2-------2-------0--|
|--3---------------3---2---------------2---------------3-2-3-------------2----|
|--0---------------0---7---------------7---5-----------0-0-0-----------7------|


   C                   G                   F              (C           G)        C
|------0---3---3-----------3---1---0-----------3---------------0-----------------------|
|--------1---1---0-----------0---0---0-------------------------------1-----------------|
|----0---------------0---0---------------0---0---0---0-------0---0---------------------|
|--2---------------2---0---------------0-----------0-------2-------2--------0----0h2---|
|--3---------------3---2---------------2---------------3-2-3--------------2------3-----|
|--0---------------0---7---------------7---5-----------0-0-0------------7--------0-----|



Chords & Lyrics

Intro:
C, G, G, (C,G) x2


Verse:
C              G
Who is like my child
         F         (C        G)
Who's so lovely and wild
C            G
Oh my little bird
       F            C
By the river I have heard


Pre-Chorus:
         F                 C
My lover calls in fall and spring
     (G            F)              C
She says keep your eyes on Heron's wings
             F                    C
She's comin' soon, lets dance and sing
       (G     F)       C
For the joy a new life brings (Second time: For the joy that her life brings)


Chorus: (Chords same as intro)

Dun dun dun


Verse 2: (Chords same as verse 1)

Strong and graceful too
Is your mother in red and blue
Love I never knew filled my heart
When I held you



*Note: Josh Garrels uses two Capos.
One on the 2nd fret, covering bottom 5 strings, and one on 4th, covering bottom 4.
This allows him to do the following:

1st - 4th string relative to Capo on 4th fret. 
5th string relative to capo on 2nd fret.
6th sting open.

|-----0----------------|
|-----------1----------|
|---0---0--------------|
|-2-------2------0--2--|
|-5-----------0h4---5--|
|-0-----------------0--|


Opposed to:

1st - 5th string relative to capo on 4th fret.
6th string open.

|-----0-----------------|
|-----------1-----------|
|---0---0---------------|
|-2-------2-------0--2--|
|-3-------------2----3--|
|-0-----------7------0--|


Both create the same sound. I just knocked out the extra capo.

Thanks for checking this out!

            
            
Suggest correction
Creating personal tab
Creating personal tab
You can edit any tab online and save it as your Personal.

You can edit, replace or remove any tab part or add personal notes – all changes will be seen only by you.

Personal tabs can be accessed anytime from any device, even offline.
Learn more »
Give kudos to tab author, rate the tab!
1 2 3 4 5
comments
print report bad tab
guest
You may want to rate the tab now too:
select rating
Wanna post a correction for this tab? Suggest correction