Oops, an error
Loading. Please wait.

Mi Morena Tab

7,206 views 1 this week
no commentswrite comment
1 2 3 4 5
x 3
add to favorites
launch autoscroll
font size
0
reset
how to read this tab
guitar tuner
×
Best way to learn
"Mi Morena"
Autoscroll
slow
fast
+/-
esc
set tempo
stop
Mi Morena
Intro-(throughout chorus as well)
  1 . 2 . 3 . 4 . |1 . 2 . 3 . 4 . |1 . 2 . 3 . 4 . |1 . 2 . 3 . 4 . |
e|----------------|----------------|----------------|----------------|
B|----------------|----------------|----------------|----44-44-------|
G|-1---34---1-----|-1—-4-3-33—-3-4-|-1---34---1-----|-1--------3-4---|
D|----------------|----------------|----------------|----------------|
A|----------------|----------------|----------------|----------------|
E|----------------|----------------|----------------|----------------|

  1 . 2 . 3 . 4 . |1 . 2 . 3 . 4 . |1 . 2 . 3 . 4 . |1 . 2 . 3 . 4 . |
e|----------------|----------------|----------------|----------------|
B|-4---22---4-----|----------------|----------------|----------------|
G|------------4---|-1--34--3-33-1-1|----------------|----------------|
D|----------------|----------------|----------------|----------------|
A|----------------|----------------|----------------|----------------|
E|----------------|----------------|----------------|----------------|

Bridge-
  1 . 2 . 3 . 4 . |1 . 2 . 3 . 4 . |1 . 2 . 3 . 4 . |1 . 2 . 3 . 4 . |
e|----------------|----------------|----------------|---1111-1111----|
B|-9—--1112--9----|9—1211-1111-1112|-9—--1112--9----|-9----------1112|
G|--—-------------|-—--------------|----------------|----------------|
D|----------------|----------------|----------------|----------------|
A|----------------|----------------|----------------|----------------|
E|----------------|----------------|----------------|----------------|

  1 . 2 . 3 . 4 . |1 . 2 . 3 . 4 . |1 . 2 . 3 . 4 . |1 . 2 . 3 . 4 . |
e|-11--99--11-----|----------------|----------------|----------------|
B|------------12--|----------------|----------------|----------------|
G|----------------|91112-11-1111-99|----------------|----------------|
D|----------------|----------------|----------------|----------------|
A|----------------|----------------|----------------|----------------|
E|----------------|----------------|----------------|----------------|

Ending-(repeat)
  1 . 2 . 3 . 4 . |1 . 2 . 3 . 4 . |1 . 2 . 3 . 4 . |1 . 2 . 3 . 4 . |
e|----------------|----------------|----------------|----------------|
B|----------------|----------------|----------------|----44-44-------|
G|-1---34---1-----|-1—-4-3-33—-3-4-|-1---34---1-----|-1--------3-4---|
D|----------------|----------------|----------------|----------------|
A|----------------|----------------|----------------|----------------|
E|----------------|----------------|----------------|----------------|

  1 . 2 . 3 . 4 . |1 . 2 . 3 . 4 . |1 . 2 . 3 . 4 . |1 . 2 . 3 . 4 . |
e|----------------|----------------|----------------|----------------|
B|-4---22---4-----|----------------|----------------|----------------|
G|------------4---|-1--34--3-33-1-1|----------------|----------------|
D|----------------|----------------|----------------|----------------|
A|----------------|----------------|----------------|----------------|
E|----------------|----------------|----------------|----------------|
Suggest correction
Give kudos to tab author, rate the tab!
1 2 3 4 5
comments
print report bad tab
guest
You may want to rate the tab now too:
select rating
Wanna post a correction for this tab? Suggest correction