Oops, an error
Loading. Please wait.

You Raise Me Up tab

version 2
version 2

Whole song

Interactive

637 views 18 this week
no commentswrite comment
1 2 3 4 5
3 more votes to show rating
add to favorites
×
Save as Personal and add changes to this tab that will be seen only by you. Learn more ›
×
You can save this tab as Personal to edit and correct it or add notes. All changes will be seen only by you. Learn more »
launch autoscroll
font size
0
reset
how to read this tab
guitar tuner
edit
Autoscroll
slow
fast
+/-
esc
set tempo
stop
Author
Difficulty
-------------------------------------------------------------------------------
                             YOU RAISE ME UP - Josh Groban
-------------------------------------------------------------------------------
Tabbed by: Warren Beach
E-mail: wcbeach@svsu.edu

Go easy on me this is my first tab.  I played around with a few other tabs, and 
I got this.  I thought it sounded good, but I'm open to suggestions, so just let 
me know if you think something sounds better! You can also play this a whole
step up, and that sounds good too.

Tuning: STANDARD 

Verse:  
e|-------1--3--------------------------------3--6----6--8---6--6--3-------------|
B|----4----------4--6--4--4--1------------4--------------------------6----------|
G|-3----------------------------3------3----------------------------------------|
D|------------------------------------------------------------------------------|
A|------------------------------------------------------------------------------|
E|------------------------------------------------------------------------------|

e|-6--6--10--11----11--10--8--6--4--6--11---------------------------------------|
B|-------------------------------------------4--4--6--8----8--8--6--4--3--4-----|
G|------------------------------------------------------------------------------|
D|------------------------------------------------------------------------------|
A|------------------------------------------------------------------------------|
E|------------------------------------------------------------------------------|

Chorus:
e|-6--6--10--11----11--10--8--6--4--6--3----6--13--11--11----11--10--8--6--4--6-|
B|------------------------------------------------------------------------------|
G|------------------------------------------------------------------------------|
D|------------------------------------------------------------------------------|
A|------------------------------------------------------------------------------|
E|------------------------------------------------------------------------------|

e|-6--10--11----11--10--8--6--4--6--11------------------------------------------|
B|----------------------------------------4--4--6--8----8--8--6--4--3--4--------|
G|------------------------------------------------------------------------------|
D|------------------------------------------------------------------------------|
A|------------------------------------------------------------------------------|
E|------------------------------------------------------------------------------|


| /   slide up
| \   slide down
| h   hammer-on
| p   pull-off
| ~   vibrato
| +   harmonic
| x   Mute note
| b   Bend
| pb  Pre-bend
| br  Bend release
| pbr Pre-bend release
| brb Bend release bend

************************************

            
            
Suggest correction
Creating personal tab
Creating personal tab
You can edit any tab online and save it as your Personal.

You can edit, replace or remove any tab part or add personal notes – all changes will be seen only by you.

Personal tabs can be accessed anytime from any device, even offline.
Learn more »
Give kudos to tab author, rate the tab!
1 2 3 4 5
comments
print report bad tab
guest
You may want to rate the tab now too:
select rating
Wanna post a correction for this tab? Suggest correction