Oops, an error
Loading. Please wait.

Naleigh Moon Tab

624 views 1 this week
1 commentread comment
1 2 3 4 5
please rate
add to favorites
launch autoscroll
font size
0
reset
how to read this tab
guitar tuner
Autoscroll
slow
fast
+/-
esc
set tempo
stop
Help us to improve Ultimate-Guitar.com Take our survey!
×
Author
Difficulty
Capo
intermediate
2nd fret
-------------------------------------------------------------------------------
                             Josh Kelley - Naleigh Moon
-------------------------------------------------------------------------------
Tabbed by: Jason
E-mail: jason.r115@hotmail.co.uk

Tuning: Josh plays in half-step down tuning normally and he has a capo on the
2nd fret for this song but if you're playing in Standard you can just capo
the 1st fret for this song.

This tab is for the main riff that is played throughout the song.  I'll add
the verse and chorus riffs soon as I work them out

This is also my first tab and I think its right, if not then im pretty sure
its very close.

e|-------------------------------------3-3---1p0-----------0-----------------|
B|---------------------1-3-----3-5---------------1-------1---1---------------|
G|-------0-----4-5-----------------------------------0h2-------2-------------|
D|-----3-------------2-------2-------2-------------3-------------3-----------|
A|---3-------5-----0-------3-------3-------3---------------------------------|
E|-1-------3-----------------------------------------------------------------|

h - Hammer-On
p - Pull-Off
Suggest correction
Give kudos to tab author, rate the tab!
1 2 3 4 5
comments
print report bad tab
1 comment total.
0 reply
pitou63 10 wrote on December 4 2013, 12:46 pm

e|-------------------------------0------3-3---1p0-----------0-------------|
B|---------------------1-3-----3----------------1-------1----1------------|
G|-------0-----4-5-----------------------------------0h2-------2----------|
D|-----3-----0-------2-------0-------2-------------3-------------3--------|
A|---3-------------0-------2-------3-------3------------------------------|
E|-1-------3--------------------------------------------------------------|

Look's like sound better isn't it ?

Thx for your tab, no one do this beautiful tab before you. ;)

guest
You may want to rate the tab now too:
select rating
Wanna post a correction for this tab? Suggest correction