Oops, an error
Loading. Please wait.

Forever Song Tab

8,533 views 1 this week
no commentswrite comment
1 2 3 4 5
please rate
add to favorites
launch autoscroll
font size
0
reset
how to read this tab
guitar tuner
Autoscroll
slow
fast
+/-
esc
set tempo
stop
Help us to improve Ultimate-Guitar.com Take our survey!
×
-------------------------------------------------------------------------------
                             Forever Song - Josh Pyke
-------------------------------------------------------------------------------
Tabbed by: Slipperystrings

Tuning: Standard EADGBe

Mute = x

INTRO

     G#m    A                    C#m   B
e|x------x----------------x--x-x--4--x--------------------|
B|x--12--x--14----14--14--x--x-x--5--x--4-----4--4--x--x--|
G|x--13--x--14----14--14--x--x-x--6--x--4-----4--4--x--x--|
D|x--13--x--14----14--14--x--x-x--6--x--4-----4--4--x--x--|
A|x--11--x--12----12--12--x--x-x--4--x--2-----2--2--x--x--|
E|--------------------------------------------------------|

   E
e|---------------------------------------------------x|
B|-9-----9-----9--x--x--9-----9---x--10--10--10--10--x|
G|-9-----9-----9--9--x--9-----9---x--9---9---9---9---x|
D|-9-----9-----9--7--x--9-----9---x--9---9---9---9---x|
A|-7-----7-----7--7--x--7-----7---x--7---7---7---7---x|
E|----------------------------------------------------|


VERSE

     G#m    A                    C#m   B
e|x------x----------------x--x-x--4--x--------------------|
B|x--12--x--14----14--14--x--x-x--5--x--4-----4--4--x--x--|
G|x--13--x--14----14--14--x--x-x--6--x--4-----4--4--x--x--|
D|x--13--x--14----14--14--x--x-x--6--x--4-----4--4--x--x--|
A|x--11--x--12----12--12--x--x-x--4--x--2-----2--2--x--x--|
E|--------------------------------------------------------|

a.   We     sleep together       while all around us,
b.   They   lie   together       till they find someone better,

     E     F#m                   E     A
e|x-----x---------------x--x-x-----x--5-----5--5--x--x--|
B|x--9--x--11---11--11--x--x-x--9--x--5-----5--5--x--x--|
G|x--9--x--11---11--11--x--x-x--9--x--6-----6--6--x--x--|
D|x--9--x--11---11--11--x--x-x--9--x--7-----7--7--x--x--|
A|x--7--x--9----9---9---x--x-x--7--x--7-----7--7--x--x--|
E|------------------------------------5-----5--5--------|

a.  People kill each other where they lie.
b.  Try to negotiate  that slow de-mise.

     G#m    A                    C#m   B
e|x------x----------------x--x-x--4--x--------------------|
B|x--12--x--14----14--14--x--x-x--5--x--4-----4--4--x--x--|
G|x--13--x--14----14--14--x--x-x--6--x--4-----4--4--x--x--|
D|x--13--x--14----14--14--x--x-x--6--x--4-----4--4--x--x--|
A|x--11--x--12----12--12--x--x-x--4--x--2-----2--2--x--x--|
E|--------------------------------------------------------|

c.  But-I-just can't credit that-type-of effort for-a,
d.  Sli-ces you so thin,      you dry like sheets in the wind,

     E     F#m                 E     A
e|---0-----2-------2----------0--x--5-----5--5--x--x--|
B|x--0--x--2-------2--x--x-x--0--x--5-----5--5--x--x--|
G|x--1--x--2----2--2--x--x-x--1--x--6-----6--6--x--x--|
D|x--2--x--4----4--4--x--x-x--2--x--7-----7--7--x--x--|
A|x--2--x--4----4--4--x--x-x--2--x--7-----7--7--x--x--|
E|x--0--x--2----2--2--x--x-x--0-----5-----5--5--------|

c.  Piece of nothing on the    edge of a kni-ife.
d.  Hold a candle behind, through: you see the light.

BRIDGE

      B     A             B          F#m        B
e|----------------5----------------------------------------------------|
B|-x--7--x--5-----5--5--x-4-4-4--x-2-2-2--x-4-4-4-5-4-5-4-5-4-----5-4--|
G|-x--8--x--6-----6--6--x-4-4-4--x-2-2-2--x-4-4-4---4-4-4-4-4-----4-4--|
D|-x--9--x--7-----7--7--x-4-4-4--x-4-4-4--x-4-4-4-----------4-----4-4--|
A|-x--9--x--7-----7--7--x-2-2-2--x-4-4-4--x-2-2-2-----------2-------2--|
E|-x--7--x--5-----5--5--x----------2-2-2-------------------------------|

CHORUS

    C#m     B               E
e|----4---------------------0----0--0----0--0--0--|
B|-x--5--x--4---4--4--x--x--0----0--0----0--0--0--|
G|-x--6--x--4---4--4--x--x--1----1--1----1--1--1--|
D|-x--6--x--4---4--4--x--x--2----2--2----2--2--2--|
A|-x--4--x--2---2--2--x--x--2---------------2-----|
E|--------------------------0---------------0-----|

   I want the song  I can sing   for-ever, I don't-

    F#m    C#m              F#m  C#m
e|----------4---4--4--------------4---4--4--------|
B|-x--2--x--5---5--5--x--x--2--x--5---5--5--x--x--|
G|-x--2--x--6---6--6--x--x--2--x--6---6--6--x--x--|
D|-x--4--x--6---6--6--x--x--4--x--6---6--6--x--x--|
A|-x--4--x--4---4--4--x--x--4--x--4---4--4--x--x--|
E|-x--2---------------------2---------------------|

   care for structure just to know its mine.

    C#m     B               E
e|----4---------------------0----0--0----0--0--0--|
B|-x--5--x--4---4--4--x--x--0----0--0----0--0--0--|
G|-x--6--x--4---4--4--x--x--1----1--1----1--1--1--|
D|-x--6--x--4---4--4--x--x--2----2--2----2--2--2--|
A|-x--4--x--2---2--2--x--x--2---------------2-----|
E|--------------------------0---------------0-----|

   I'd hate to see this    thing we've developed be-


    F#m    C#m              B
e|----------4---4--4---------------|
B|-x--2--x--5---5--5--x--x--4--x---|
G|-x--2--x--6---6--6--x--x--4--x---|
D|-x--4--x--6---6--6--x--x--4--x---|
A|-x--4--x--4---4--4--x--x--2--x---|
E|-x--2----------------------------|

   -come your burden,or my waste of

   E                   F#m                  G#m                   A
e|-0----0--0---0--0--0--2----2--2---2--2--2--4----4--4---4--4--4--5----------|
B|-0----0--0---0--0--0--2----2--2---2--2--2--4----4--4---4--4--4--5----------|
G|-1----1--1---1--1--1--2----2--2---2--2--2--4----4--4---4--4--4--6----------|
D|-2----2--2---2--2--2--4----4--4---4--4--4--6----6--6---6--6--6--7----------|
A|-2-------2---2--2--2--4-------4---4-----4--6-------6---6-----6--7----------|
E|-0-------0---0-----0--2-------2---2-----2--4-------4---4-----4--5----------|

  time                           my waste of time

BRIDGE

     G#m    A                    C#m   B
e|x------x----------------x--x-x--4--x--------------------|
B|x--12--x--14----14--14--x--x-x--5--x--4-----4--4--x--x--|
G|x--13--x--14----14--14--x--x-x--6--x--4-----4--4--x--x--|
D|x--13--x--14----14--14--x--x-x--6--x--4-----4--4--x--x--|
A|x--11--x--12----12--12--x--x-x--4--x--2-----2--2--x--x--|
E|--------------------------------------------------------|

   E
e|---------------------------------------------------x|
B|-9-----9-----9--x--x--9-----9---x--10--9---9---9---x|
G|-9-----9-----9--9--x--9-----9---x--9---9---9---9---x|
D|-9-----9-----9--7--x--9-----9---x--9---9---9---9---x|
A|-7-----7-----7--7--x--7-----7---x--7---7---7---7---x|
E|----------------------------------------------------|

VERSE 2

     G#m    A                    C#m   B
e|x------x----------------x--x-x--4--x--------------------|
B|x--12--x--14----14--14--x--x-x--5--x--4-----4--4--x--x--|
G|x--13--x--14----14--14--x--x-x--6--x--4-----4--4--x--x--|
D|x--13--x--14----14--14--x--x-x--6--x--4-----4--4--x--x--|
A|x--11--x--12----12--12--x--x-x--4--x--2-----2--2--x--x--|
E|--------------------------------------------------------|

a.  The afternoon can     bring with it shallow moods but,
b.  I  quarter the years,you drop the sails till we're clear,
c.  Hi-story tells us     of worlds we'll know nothing of,
d.  the ankles of us,     oh in the future we trust.

     E     F#m                 E     A
e|---0-----2-------2----------0--x--5-----5--5--x--x--|
B|x--0--x--2-------2--x--x-x--0--x--5-----5--5--x--x--|
G|x--1--x--2----2--2--x--x-x--1--x--6-----6--6--x--x--|
D|x--2--x--4----4--4--x--x-x--2--x--7-----7--7--x--x--|
A|x--2--x--4----4--4--x--x-x--2--x--7-----7--7--x--x--|
E|x--0--x--2----2--2--x--x-x--0-----5-----5--5--------|

a.  I'd jump a harbour wall to clear your mind.
b.  I'll look for reefs you map the stars in the night.
c.  then retrospect becomes  a  shackle of time, on-
d.  We cross our fingers like some kids telling lies.

BRIDGE

      B     A             B          F#m        B
e|----------------5----------------------------------------------------|
B|-x--7--x--5-----5--5--x-4-4-4--x-2-2-2--x-4-4-4-5-4-5-4-5-4-----5-4--|
G|-x--8--x--6-----6--6--x-4-4-4--x-2-2-2--x-4-4-4---4-4-4-4-4-----4-4--|
D|-x--9--x--7-----7--7--x-4-4-4--x-4-4-4--x-4-4-4-----------4-----4-4--|
A|-x--9--x--7-----7--7--x-2-2-2--x-4-4-4--x-2-2-2-----------2-------2--|
E|-x--7--x--5-----5--5--x----------2-2-2-------------------------------|

CHORUS

    C#m     B               E
e|----4---------------------0----0--0----0--0--0--|
B|-x--5--x--4---4--4--x--x--0----0--0----0--0--0--|
G|-x--6--x--4---4--4--x--x--1----1--1----1--1--1--|
D|-x--6--x--4---4--4--x--x--2----2--2----2--2--2--|
A|-x--4--x--2---2--2--x--x--2---------------2-----|
E|--------------------------0---------------0-----|

   I want the song  I can sing   for-ever, I don't-

    F#m    C#m              F#m  C#m
e|----------4---4--4--------------4---4--4--------|
B|-x--2--x--5---5--5--x--x--2--x--5---5--5--x--x--|
G|-x--2--x--6---6--6--x--x--2--x--6---6--6--x--x--|
D|-x--4--x--6---6--6--x--x--4--x--6---6--6--x--x--|
A|-x--4--x--4---4--4--x--x--4--x--4---4--4--x--x--|
E|-x--2---------------------2---------------------|

   care for structure just to know its mine.

    C#m     B               E
e|----4---------------------0----0--0----0--0--0--|
B|-x--5--x--4---4--4--x--x--0----0--0----0--0--0--|
G|-x--6--x--4---4--4--x--x--1----1--1----1--1--1--|
D|-x--6--x--4---4--4--x--x--2----2--2----2--2--2--|
A|-x--4--x--2---2--2--x--x--2---------------2-----|
E|--------------------------0---------------0-----|

   I'd hate to see this    thing we've developed be-


    F#m    C#m              B
e|----------4---4--4---------------0---0--0----|
B|-x--2--x--5---5--5--x--x--4--x---0---0--0--x-|
G|-x--2--x--6---6--6--x--x--4--x---1---1--1--x-|
D|-x--4--x--6---6--6--x--x--4--x---2---2--2--x-|
A|-x--4--x--4---4--4--x--x--2--x---2------2--x-|
E|-x--2----------------------------1------1----|

  -come your burden,or my waste of time.

    C#m     B               C#m           B     E
e|----4---------------------4-----------------------|
B|-x--5--x--4---4--4--x--x--5----5--5--x--4--x--0--x|
G|-x--6--x--4---4--4--x--x--6----6--6--x--4--x--1--x|
D|-x--6--x--4---4--4--x--x--6----6--6--x--4--x--2--x|
A|-x--4--x--2---2--2--x--x--4----4--4--x--2--x--2--x|
E|----------------------------------------------0---|

   I wanna know that I   know what I'm talking about,

    F#m    C#m                 B     A
e|----------4---4--4-----------------0---0--0----|
B|-x--2--x--5---5--5--x--x--x--4--x--2---2--2--x-|
G|-x--2--x--6---6--6--x--x--x--4--x--2---2--2--x-|
D|-x--4--x--6---6--6--x--x--x--4--x--2---2--2--x-|
A|-x--4--x--4---4--4--x--x--x--2--x--0------0--x-|
E|-x--2------------------------------------------|

  until I do then  all  the  walls seem wide.

    C#m     B               E
e|----4---------------------0----0--0----0--0--0--|
B|-x--5--x--4---4--4--x--x--0----0--0----0--0--0--|
G|-x--6--x--4---4--4--x--x--1----1--1----1--1--1--|
D|-x--6--x--4---4--4--x--x--2----2--2----2--2--2--|
A|-x--4--x--2---2--2--x--x--2---------------2-----|
E|--------------------------0---------------0-----|

  but when I'm sure that I know what I'm talking about,

    F#m    C#m              B
e|----------4---4--4---------------|
B|-x--2--x--5---5--5--x--x--4--4---|
G|-x--2--x--6---6--6--x--x--4--2---|
D|-x--4--x--6---6--6--x--x--4--2---|
A|-x--4--x--4---4--4--x--x--2--2---|
E|-x--2----------------------------|

 I'll take your burden if you'll say it's-

   E                   F#m
e|-0----0--0---0--0--0--2----2--2---2--2--2-|
B|-0----0--0---0--0--0--2----2--2---2--2--2-|
G|-1----1--1---1--1--1--2----2--2---2--2--2-|
D|-2----2--2---2--2--2--4----4--4---4--4--4-|
A|-2-------2---2--2--2--4-------4---4-----4-|
E|-0-------0---0-----0--2-------2---2-----2-|

 mine                         you'll say it's


   G#m                  A
e|-4----4--4---4--4--4--5----5--5---5--5--5-|
B|-4----4--4---4--4--4--5----5--5---5--5--5-|
G|-4----4--4---4--4--4--6----6--6---6--6--6-|
D|-6----6--6---6--6--6--7----7--7---7--7--7-|
A|-6-------6---6-----6--7-------7---7-----7-|
E|-4-------4---4-----4--5-------5---5-----5-|

mine                                     say it's

   E                   F#m
e|-0----0--0---0--0--0--2----2--2---2--2--2-|
B|-0----0--0---0--0--0--2----2--2---2--2--2-|
G|-1----1--1---1--1--1--2----2--2---2--2--2-|
D|-2----2--2---2--2--2--4----4--4---4--4--4-|
A|-2-------2---2--2--2--4-------4---4-----4-|
E|-0-------0---0-----0--2-------2---2-----2-|

 mine                         you say it's mine


   G#m                  A
e|-4----4--4---4--4--4--5----5--5---5--5--5-|
B|-4----4--4---4--4--4--5----5--5---5--5--5-|
G|-4----4--4---4--4--4--6----6--6---6--6--6-|
D|-6----6--6---6--6--6--7----7--7---7--7--7-|
A|-6-------6---6-----6--7-------7---7-----7-|
E|-4-------4---4-----4--5-------5---5-----5-|

 mine.

OUTRO


     G#m    A                    C#m   B
e|x------x----------------x--x-x--4--x-----------------|
B|x--12--x--14----14--14--x--x-x--5--x--4-----4--4--x--|
G|x--13--x--14----14--14--x--x-x--6--x--4-----4--4--x--|
D|x--13--x--14----14--14--x--x-x--6--x--4-----4--4--x--|
A|x--11--x--12----12--12--x--x-x--4--x--2-----2--2--x--|
E|-----------------------------------------------------|

   E
e|--------------------------|
B|-10-----------------------|
G|-9------------------------|
D|-9------------------------|
A|-7------------------------|
E|--------------------------|

I noticed there were no decent tabs for this song on the web so here is my attempt.  
suggestions or corrections and I'll review them.  I'm not sure if the lyrics are accurate.  
it is a great song.

Enjoy,
-Slipperystrings

====================================================================================
Suggest correction
Give kudos to tab author, rate the tab!
1 2 3 4 5
comments
print report bad tab
guest
You may want to rate the tab now too:
select rating
Please do not post tabs as comments. Select "correction" instead!