Oops, an error
Loading. Please wait.

Make You Happy Tab

version 1
version 1

Whole song

12,952 views 1 this week
2 commentsread comments
1 2 3 4 5
please rate
add to favorites
launch autoscroll
font size
0
reset
how to read this tab
guitar tuner
Autoscroll
slow
fast
+/-
esc
set tempo
stop
Help us to improve Ultimate-Guitar.com Take our survey!
×
Contributor
Chords :  F#maj  G#maj  A# Minor  C#maj  Eb Minor

e|----------2------4-------6--------4-------6-------|
b|----------2------4-------6--------6-------7-------|
g|----------3------5-------6--------6-------8-------|
d|----------4------6-------8--------6-------8-------|
a|----------4------6-------8--------4-------6-------|
E|----------2------4-------6------------------------|


Intro/Verses:

F#maj - F#maj - G#maj - A#minor/G#maj

Chorus:

F#maj - C#maj - A#minor - G#maj - Eb minor - C#maj - F#maj - F#maj

Intro Slide Riff:

e|------------------------------------|------------|
g|---8/9--8/9--8/9--8/9--9/11--11/13--|----13/16---|
g|------------------------------------|------------|
d|------------------------------------|------------|
a|------------------------------------|------------|
E|------------------------------------|------------|


LYRICS:

Every now and then

I get a little too close

To a kind of truth that's not worth thinking about

But you can't stop the mind from wandering

You've gotta slow it down

Maybe get yourself under control


And it's hard to stop the pondering

And there have been points when

I feel like I've been on a roll

But then those curtains get drawn

And the chances that you thought you had

They really come to nothing at all


And I have no need

For such things

But to make you happy

Does it make you happy?

And I've busted strings on this guitar

Makes me feel like I'm getting nowhere

Could you make me happy?

And if you keep me on your right

Could I keep you on my left?


And there's a question on your lips

On your finger tips

Stabbing in the dark

Like you're cut, cut,

Cutting your fringe back

But it's grown out at such an angle

That the shears aren't sharp

You've got to straight, straight,

Straighten the blades up


And if I could make it easier

I would always try to make it easier

But to be a cautious operator

Is the way to

Stop this falling apart


And I have no need

For such things

But to make you happy

Does it make you happy?

And I've busted strings on this guitar

Makes me feel like I'm getting nowhere

Could you make me happy?

And I have no need

For such things

But to make you happy

Make you happy

Does it make you happy?

Does it make you happy?

And if you keep me on your right

Could I keep you on my left?
comments
We did not receive enough feedback on this tab! Please rate:
print report bad tab
1 2 3 4 5
2 comments total.
0 reply
Myles2093 11 wrote on December 12 2008, 09:29 pm

Awesume tab, and for the last bit it is
A# minor G#maj
And If You keep me on your right
F#maj C#maj
can i keep you on my left

Then the follow on part is:
e|--------------------------
b|--------------------------
g|-------------6h8---6------
d|-------6h8----------------
a|--6h8---------------------
E|--------------------------

+1 reply
SeanisMcgaunis 55 wrote on July 26 2009, 06:28 am

i think this sounds better

Intro
Drop D
Capo 1st Fret

E|--0--0--|--0---X---0-|
B|--1--1--|--3---5---3-|
G|--2--0--|--4---5---4-|
D|--0--2--|--0---5---0-|
A|--3--3--|--5---7---5-|
D|--3--2--|--5---7---5-|

Chorus:

E--0---0---0---0---2---0---0---0--0--|
B--1---1---1---3---3---1---1---1--1--|
G--2---0---2---4---2---0---2---2--0--|
D--0---2---2---0---0---2---2---0--2--|
A--3---3---0---5---0---3---0---3--3--|
D--3---0---0---5---0---0---0---3--2--|

I want to post or [tab]
guest
You may want to rate the tab now too:
select rating
Please do not post tabs as comments. Select "correction" instead!