Oops, an error
Loading. Please wait.

Another New World chords

version 2
version 2

Whole song

37 views 6 this week
no commentswrite comment
1 2 3 4 5
3 more votes to show rating
add to favorites
×
Save as Personal and add changes to this tab that will be seen only by you. Learn more ›
×
You can save this tab as Personal to edit and correct it or add notes. All changes will be seen only by you. Learn more »
launch autoscroll
font size
0
reset
transpose
0
reset
simplify chords
display chords
guitar tuner
edit
Autoscroll
slow
fast
+/-
esc
set tempo
stop
Strumming
There is no strumming pattern for this song yet. and get +5 IQ
[Intro]
Bm
e|-------------------------|-------------------------|
B|-----3-----3-----3-----3-|-----3-----3-----3-----3-|
G|---4-----4-----4-----4---|---4-----4-----4-----4---|
D|-------------------------|-------------------------|
A|-2-----2-----2-----2-----|-2-----2-----2-----2-----|
E|-------------------------|-------------------------|
A7
e|-----0-----0-----0-----0-|-----0-----0-----0-----0-|
B|---2-----2-----2-----2---|---2-----2-----2-----2---|
G|-------------------------|-------------------------|
D|-2-----2-----2-----2-----|-2-----2-----2-----2-----|
A|-------------------------|-------------------------|
E|-------------------------|-------------------------|
F#7
e|-----0-----0-----0-----0-|-----0-----0-----0-----0-|
B|---2-----2-----2-----2---|---2-----2-----2-----2---|
G|-------------------------|-------------------------|
D|-4-----4-----4-----4-----|-4-----4-----4-----4-----|
A|-------------------------|-------------------------|
E|-------------------------|-------------------------|
Bm
e|-------------------------|-------------------------|
B|-----3-----3-----3-----3-|-----3-----3-----3-----3-|
G|---4-----4-----4-----4---|---4-----4-----4-----4---|
D|-------------------------|-------------------------|
A|-2-----2-----2-----2-----|-2-----2-----2-----2-----|
E|-------------------------|-------------------------|
B
e|-------------------------|-------------------------|
B|-----4-----4-----4-----4-|-----4-----4-----4-----4-|
G|---4-----4-----4-----4---|---4-----4-----4-----4---|
D|-------------------------|-------------------------|
A|-2-----2-----2-----2-----|-2-----2-----2-----2-----|
E|-------------------------|-------------------------|
Em
e|-----0-----0-----0-----0-|-----0-----0-----0-----0-|
B|---0-----0-----0-----0---|---0-----0-----0-----0---|
G|-------------------------|-------------------------|
D|-2-----2-----2-----2-----|-2-----2-----2-----2-----|
A|-------------------------|-------------------------|
E|-------------------------|-------------------------|
A7
e|-----0-----0-----0-----0-|-----0-----0-----0-----0-|
B|---2-----2-----2-----2---|---2-----2-----2-----2---|
G|-------------------------|-------------------------|
D|-2-----2-----2-----2-----|-2-----2-----2-----2-----|
A|-------------------------|-------------------------|
E|-------------------------|-------------------------|
D                           F#
e|-----2-----2-----2-----2-|-----2-----2-----2-----2-|
B|---3-----3-----3-----3---|---2-----2-----2-----2---|
G|-------------------------|-------------------------|
D|-0-----0-----0-----0-----|-4-----4-----4-----4-----|
A|-------------------------|-------------------------|
E|-------------------------|-------------------------|

[Verse]
            Bm
The leading light of the age all wondered amongst
                           A7
Themselves what I would do next
      F#7
After all that I'd found in my travels around
           Bm
The world, was there anything else left?
B
"Gentlemen", I said, "I've studied the charts"
        Em
"And if what I'm thinking is right"
         A7
"There's another new world at the top of the world"
         D                                F#
"For the first one who breaks through the ice"

[Verse]
                       Bm
And I looked round the room in that way I once had
      A7
And I saw that they wanted belief
     F#7
So I said "All I've got are my guts and my God"
             Bm
Then I paused, "and the Annabelle Lee"
B
Oh the Annabelle Lee, I saw their eyes shine
         Em
The most beautiful ship in the sea
   A7
My Nina, My Pinta, My Santa Maria
   D                   F#
My beautiful Annabelle Lee

[Verse]
     Bm
That spring we set sail as the crowds waved from shore
       A7
And on board the crew waved their caps
      F#7
But I never had family just the Annabelle Lee
     Bm
So I didn't have cause to look back
       B
I just set the course north and I studied the charts
           Em
And toward dawn I drifted toward sleep
      A7
And I dreamed of the fine deep harbor I'd find
         D                    F#
Past the ice for my Annabelle Lee

[Verse]
                  Bm
After that it got colder the world got quiet
       A7
It was never quite day or quite night
        F#7
And the sea turned the color of sky turned the color
   Bm
Of sea turned the color of ice
        B
'Til at last all around us was fastness
                Em
One vast glassy desert of arsenic white
        A7
And the waves that once lifted us
                    D                          F#
Sifted instead into drifts against Annabelle's sides

[Verse]
                  Bm
The crew gathered closer at first for the comfort
         A7
But each morning would bring a new set
       F#7
Of the tracks in the snow leading over the edge
            Bm
Of the world 'til I was the only one left
                B
But then it gets cloudy and it seems like I lay there
    Em
For days maybe for months
    A7
But Annabelle held me the two of us happy
        D                        F#
Just to think back on all we had done

[Verse]
   Bm
We talked of the other new worlds we'd discover
       A7
As she gave up her body to me
         F#7
And as I chopped up her mainsail for timber
              Bm
I told her of all that we still had to see
       B
As the frost turned her moorings to nine-tails
        Em
And the wind lashed her sides in the cold
  A7
I burned her to keep me alive every night
       D                      F#
In the lover's embrace of her hold

[Verse]
                Bm
I won't call it rescue what brought me back here to
    A7
The old world to drink and decline
       F#7
And to pretend that the search for another new world
        Bm
Was well-worth the burning of mine
    B
But sometimes at night in my dreams comes the singing
   Em
Of some unheard tropical bird
      A7
And I smile in my sleep thinking Annabelle Lee's
        D                        F#7
Finally made it to the top of the world

[Outro]
    B
Yes sometimes at night, in my dreams comes the singing
   Em
Of some unknown tropical bird
      A7
And I smile in my sleep thinking Annabel Lee's
        D                      F#
Finally made it to another new world

            
            
Suggest correction
Creating personal tab
Creating personal tab
You can edit any tab online and save it as your Personal.

You can edit, replace or remove any tab part or add personal notes – all changes will be seen only by you.

Personal tabs can be accessed anytime from any device, even offline.
Learn more »
Give kudos to tab author, rate the tab!
1 2 3 4 5
comments
print report bad tab
guest
You may want to rate the tab now too:
select rating
Wanna post a correction for this tab? Suggest correction