Oops, an error
Loading. Please wait.

Change Of Time Tab

13,992 views 27 this week
2 commentsread comments
1 2 3 4 5
accurate
x 5
add to favorites
launch autoscroll
font size
0
reset
how to read this tab
guitar tuner
Tab Pro tools
  • play this tab
  • loop segment
  • change instrument
  • show fretboard
  • metronome
×
Best way to learn
"Change Of Time"
Autoscroll
slow
fast
+/-
esc
set tempo
stop
Contributor
Capo
3rd fret
Artist: Josh Ritter
Song: Change of Time
Album: So Runs the World Away
Tabbed by: Don Tago
Email: recebedou@yahoo.com




Standard Tuning: Capo III [all chords/tabs relative to capo]


Chords used:
   EADGBe
C: 032010
Em:022000
F: 133211
G: 320003


Intro/verse tab:
   C                                Em
e|------------------------------------------------------------------|
B|------------------------------------0---0---0---0---0---0---0---0-|
G|---0---0---0---0---0---0---0---0----------------------------------| 
D|-----2-------2-------2-------0--------2-------2-------2-------0---| 
A|-3-------3-------3-------3--------2-------2-------2-------2-------|
E|------------------------------------------------------------------|

   F                               G
e|------------------------------------------------------------------|
B|---1---1---1---1---1---1---1---1---0---0---0---0---0---0---0---0--|
G|------------------------------------------------------------------| 
D|-----3-------3-------3-------0-------3-------3-------3-------0----| 
A|-3-------3-------3-------3----------------------------------------|
E|---------------------------------3-------3-------3-------3--------|



Intro: play intro/verse tab 1x


Verse 1: [use intro/verse tab for all verses]
I had a dream last night, I dreamt that I was swimming
And the stars up above, directionless and drifting
Somewhere in the dark, were the sirens and the thunder
And around me as I swam, the drifters who'd gone under


Chorus: [use intro/verse tab for all choruses]
Time, love, time, love
Time, love, it's only a change of time


Verse 2:
I had a dream last night and rusting far below me
Battered hulls and broken hardships, leviathan and Lonely
I was thirsty so I drank and though it was salt water
There was something 'bout the way, it tasted so familiar


Chorus:


Verse 3:
The black clouds I'm hanging, this anchor I'm dragging
The sails of memory rip open in silence, we cut through the lowlands
All hands through the saltlands, the white caps of memory
Confusing and violent


Chorus:


Verse 4:
I had a dream last night and when I opened my eyes
Your shoulder blade, your spine, were shorelines in the moon light
New worlds for the weary, new lands for the living
I could make it if I tried, I closed my eyes I kept on swimming 


Chorus: [repeat til fadeout]
comments
print report bad tab
2 comments total.
0 reply
erik.silkensen wrote on August 2 2011, 08:30 pm

sounds like the album version might be capo 2

0 reply
11Eleven11 wrote on April 24 2013, 11:10 am

Try a G7 instead of a G. And then make sure to hit that first string.

I want to post or [tab]
guest
You may want to rate the tab now too:
select rating
Please do not post tabs as comments. Select "correction" instead!