Oops, an error
Loading. Please wait.

Getting Ready To Get Down Tab

10 views 3 this week
no commentswrite comment
1 2 3 4 5
3 more votes to show rating
add to favorites
launch autoscroll
font size
0
reset
how to read this tab
guitar tuner
Autoscroll
slow
fast
+/-
esc
set tempo
stop
Help us to improve Ultimate-Guitar.com Take our survey!
×
Author
Difficulty
novice
About this tab version
Eight bar solo transcribed by ear, may not be how it is played by artist. Was this info helpful? Yes No
Getting Ready to Get Down by Josh Ritter
Key:  F
BPM:  107

This is the solo after the line "Jesus hates your high school dances."  I think it goes over the same
chord progression as the main verse (F|Bb|Dm|C) played twice, for a total of eight bars.  For timing, you'll 
have to listen to the song.

e|--------------|--------------------------|-----------------------|---16b(17)---18-|
B|--------------|-(13)pbr11-11--11-11b(13)-|-13------------13b(15)-|---16b(17)---18-|
G|--------------|--------------------------|-----(14)pbr12---------|----------------|
D|---------/7-5-|--------------------------|-----------------------|----------------|
A|---/5-3-------|--------------------------|-----------------------|----------------|
E|-1------------|--------------------------|-----------------------|----------------|

e|------------------------------|----------------------|-----------------|
B|-s/18-15p13-------------------|----------------------|---------------6-|
G|------------12/14-17p14-------|----------------------|-----------------|
D|------------------------17p15-|----------3-3-------3-|-3---3---3-3-----|
A|------------------------------|-5\3/5-5~-----5\3/5---|----5--5-----5---|
E|------------------------------|----------------------|-----------------|

e|---------------------|
B|-6---------6-6-------|
G|---7-7-5-7-----7-5---|
D|-------------------7-|
A|---------------------|
E|---------------------|

For the rest of the song, before and after the solo, I basically use the chord progression already posted on
here which has it in the key of F, as that sounded closest to me.

***********************************

| /   Slide up
| \   Slide down
| p   Pull-off
| ~   Vibrato
| b   Bend
| pbr Pre-bend release

***********************************
Suggest correction
Give kudos to tab author, rate the tab!
1 2 3 4 5
comments
print report bad tab
guest
You may want to rate the tab now too:
select rating
Wanna post a correction for this tab? Suggest correction