Oops, an error
Loading. Please wait.

Would You Go With Me Tab

version 2
version 2

Whole song

63,377 views 30 this week
1 commentread comment
1 2 3 4 5
x 24
add to favorites
launch autoscroll
font size
0
reset
how to read this tab
guitar tuner
Autoscroll
slow
fast
+/-
esc
set tempo
stop
Help us to improve Ultimate-Guitar.com Take our survey!
×
Author
Difficulty
novice
FLAT tuning

[Chords]
    G Em7 C2 D/F# D
Eb|-3--3---3--3---2-|      
Bb|-3--3---3--3---3-|      
Gb|-0--0---0--0---2-|      
Db|-0--2---2--0---0-|      
Ab|-2--2---3--x---x-|      
Eb|-3--0---x--2---x-|      

[Intro]
  G                             G
Eb|----------------------|      |--------------------|
Bb|----------------------|      |--------------------|
Gb|----------------------|      |--------------------|
Db|----------------------|      |--------------------| x3
Ab|---7-9-10-9-7-5-------|      |---7-9-10-9-7-5-----|
Eb|-0--------------8-----|      |-0--------------7-5-|

[Verse 1]
             G             D/F#   Em7  D          C2
Would you go with me if we rolled down streets of fire
Em7                     C2      Em7                   C2
Would you hold on to me tighter as the summer sun got higher
Em7                     D/F#                   Em7
If we roll from town to town and never shut it down
Would you go with me if we were lost in fields of clover
Would we walk even closer until the trip was over
And would it be okay if I didn't know the way

[Chorus]
     C2                         D
If I gave you my hand would you take it
                G        D/F#       Em7
And make me the happiest man in the world
     C2                         D                                 Em7
If I told you my heart couldn't beat one more minute without you, girl
          C2                   D
Would you accompany me to the edge of the sea
       G              D/F#     Em7
Let me know if you're really a dream
           C2      D                 G
I love you so, so would you go with me

[Instrumental]
  G                             G
Eb|----------------------|      |--------------------|
Bb|----------------------|      |--------------------|
Gb|----------------------|      |--------------------|
Db|----------------------|      |--------------------| x3
Ab|---7-9-10-9-7-5-------|      |---7-9-10-9-7-5-----|
Eb|-0--------------8-----|      |-0--------------7-5-|

[Verse 2]
Would you go with me if we rode the clouds together
Could you not look down forever
If you were lighter than a feather
Oh, and if I set you free, would you go with me

[Chorus]
If I gave you my hand would you take it
And make me the happiest man in the world
If I told you my heart couldn't beat one more minute without you, girl
Would you accompany me to the edge of the sea
Help me tie up the ends of a dream
I gotta know, would you go with me
I love you so, so would you go with me


************************************

| b  Bend
| x  Dead note

************************************
Suggest correction
comments
print report bad tab
1 comment total.
0 reply
robremlap 10 Apr 26, 2015 05:37 PM

Thanks for the intro, but I would have liked to see tab-note for the solo too.

guest
You may want to rate the tab now too:
select rating
Wanna post a correction for this tab? Suggest correction