Oops, an error
Loading. Please wait.

Savior Please Tab

version 2
version 2

Whole song

3,988 views 1 this week
no commentswrite comment
1 2 3 4 5
please rate
add to favorites
launch autoscroll
font size
0
reset
how to read this tab
guitar tuner
Tab Pro tools
  • play this tab
  • loop segment
  • change instrument
  • show fretboard
  • metronome
×
Best way to learn
"Savior Please"
Autoscroll
slow
fast
+/-
esc
set tempo
stop
Contributor
Tabbers playing skills
intermediate +
Savior Please
Josh Wilson
Key: B
Meter: 3/4

Guitar tuned down 1/2 step

Based on Spirit 105.3 performance http://www.youtube.com/watch?v=HxhNVEUY55c
Tabbed+chorded by weksa
Contact: weksa@live.com
Tutorial: http://www.youtube.com/watch?v=Pwa1MJYYzVA

The chords used are:
EADGBe
Fmaj7: xx3010
Gsus4: 3x0013
G: 3x0003
Fmaj7/E: xx2010 --  chorus xx2013
C: x32010 -- sometimes hammer on the D string 0h2, chorus x32013
G5: 3x0033
Am7: x02010 -- chorus x02013
C/G: 332010 -- sometimes hammer on the D string 0h2
C/E: 032010
Am9: x0550x
Fsus2: 13301x

  Fmaj7 Gsus4 G    C   Fmaj7/E  G5 Am7 C/G C/E Am9 Fsus2
e|-0-3----3---3---0-3-----0-----3--0-3--0---0--------------------|
B|-1-1----1---0---1-1-----1-----3--1-1--1---1---0----1-----------|
G|-0-0----0---0---0-0-----0-----0--0-0--0---0---5----0-----------|
D|-3-3----0---0---2-2-----2-----0--2-2--2---2---5----3-----------|
A|--------x---x---3-3-----------x--0-0--3---3---0----3-----------|
E|--------3---3-----------------3-------3---0--------1-----------|


Intro:
(Alternate picking is shown below the tab)
   C    Fmaj7                               Gsus4 G
e|-0----------------------------------------------------|--------|
B|-1----------1-----------1-----------1-------1---0-----|--------|
G|-0------0-------0---0-------0---0-------0-----------0-|--------|
D|-2----3-----------3-----------3---------------0-------|--------|
A|-3----------------------------------------------------|--------|
E|------------------------------------------3-----------|--------|
   d    d u _ u _ u d u _ u _ u d u _ u _ u d u d u _ u

   C
e|-------------------------0-------------------------------------|
B|-------1-----------1-----1-------------------------------------|
G|---0-------0-0---------0-0-------------------------------------|
D|-------------0h2---------2-------------------------------------|
A|-3-----------3-----------3-------------------------------------|
E|---------------------------------------------------------------|
   d u _ u _ u d _ _ u _ u d

Verse 1:
        Fmaj7  Gsus4   C
Savior, please take my hand
  Fmaj7/E Fmaj7   Gsus4   Am7
I work so hard, I live so fast
     C/E    Fsus2     G5      C/G
This life begins, and then it ends
    C/E      Fsus2                  G5             Am7       Gsus4
And I do the best that I can, but I don't know how long I'll last


Chorus:
Fmaj7    C
I try to be so tough
    Gsus4        Am7          C/E
But I'm just not strong enough
        Fsus2                G5                     C/G  Gsus4
I can't do this alone, God I need You to hold on to me
  Fmaj7     C
I try to be good enough
        Gsus4       Am7
But I'm nothing without Your love
C/E     Fsus2       G5     C/G
Savior, please keep saving me


Verse2:
C/E     Fsus2  G5      C/G
Savior, please help me stand
  C/E     Fsus2   G5      Am9
I fall so hard, I fade so fast
     C/E   Fsus2     G5      C/G
Will You begin right where I end
    C/E    Fsus2             G5           Am7        Gsus4
And be the God of all I am because You're all that I have


Chorus:
Fmaj7    C
I try to be so tough
    Gsus4        Am7          C/E
But I'm just not strong enough
        Fsus2                G5                     C/G  Gsus4
I can't do this alone, God I need You to hold on to me
  Fmaj7     C
I try to be good enough
        Gsus4       Am7
But I'm nothing without Your love
C/E     Fsus2       G5     C/G
Savior, please keep saving me


Bridge:
   Fmaj7       Gsus4       Fmaj7/E
e|-------------------------------------|-------------------------|
B|-------1-----------1-----------1-----|-------------------------|
G|-----------0-----------0-----------0-|-------------------------|
D|-3-----------------------0h2---------|-------------------------|
A|-------------------------------------|-------------------------|
E|-------------3-----------------------|-------------------------|
   d _ _ u _ u d _ _ u _ u d _ _ u _ u

   Fmaj7       Fmaj7       Am7         Gsus4
e|-------------------------------------------------|-------------|
B|-------1-----------1-----------1-----------1-----|-------------|
G|-----------0-----------0-----------0-----------0-|-------------|
D|-3-----------3-----------------------------------|-------------|
A|-------------------------0-----------------------|-------------|
E|-------------------------------------3-----------|-------------|
   d _ _ u _ u d _ _ u _ u d _ _ u _ u d _ _ u _ u

       Fmaj7          Fmaj7    Am7  Gsus4  C/E (start strumming)
'Cause everything You are to me
   Fsus2           Fsus2    Fsus2  G  C/E
Is everything I'll ever need
    Fsus2         Fsus2   Am7  Gsus4  C/E
And I am learning to believe
     Fsus2           Fsus2    Fsus2  G5  C/E
That I don't have to prove a thing
       Fsus2                Fsus2  Am7  Gsus4
'Cause You're the one who's saving me
     Fmaj7  Gsus4
Hallelu  -  jah


Last Chorus:
         C
I try to be so tough
    Gsus4        Am7          C/E
But I'm just not strong enough
        Fsus2                G5                     C/G  Gsus4
I can't do this alone, God I need You to hold on to me
  Fmaj7     C
I try to be good enough
        Gsus4       Am7
But I'm nothing without Your love
C/E     Fsus2       G5     Am7           Gsus4
Savior, please keep saving me, thank You Jesus
C/E     Fsus2            G5     C
Savior, please, You keep saving me


Outro:
   C                                   C/E
e|-------------------------------------------------|-------------|
B|-------1-----------1-----------1-----------1-----|-------------|
G|-----------0-----------0-----------0-----------0-|-------------|
D|-------------0h2-----------2---------2-----------|-------------|
A|-3-----------------------3-----------3-----------|-------------|
E|-------------------------------------0-----------|-------------|
   d _ _ u _ u d u _ u _ u d u _ u _ u d _ _ u _ u

   Fsus2                               Gsus4 G       C
e|-------------------------------------------------|-------------|
B|-------1-----------1-----------1-------1---0-----|-1-----------|
G|-----0-----0-----0-----0-----0-----0-----------0-|-0-----------|
D|-----------------------------------------0-------|-0h2---------|
A|-3-----------3-----------3-----------------------|-3-----------|
E|-1-----------1-----------1-----------3-----------|-------------|
   d _ d u _ u d _ d u _ u d _ d u _ u d u d u _ u   d
comments
We did not receive enough feedback on this tab! Please rate:
print report bad tab
1 2 3 4 5
I want to post or [tab]
guest
You may want to rate the tab now too:
select rating
Please do not post tabs as comments. Select "correction" instead!