Oops, an error
Loading. Please wait.

Dangerous Tab

3,258 views 1 this week
no commentswrite comment
1 2 3 4 5
excellent!
x 5
add to favorites
launch autoscroll
font size
0
reset
how to read this tab
guitar tuner
Autoscroll
slow
fast
+/-
esc
set tempo
stop
Help us to improve Ultimate-Guitar.com Take our survey!
×
Difficulty
Capo
novice
1st fret
This is my first submitted tab. Please forgive any mistakes.

Capo 1


(Intro and all Verses)
     F
e ---------------------------------------------------------------|
B --------------1--------------1--------------1-------------1-1--|
G -------2-2------2----2-2-------2----2-2-------2----2-2----2-2--|
D ---3-3-----3------3-------3------3------3-------3---------3-3--|
A ---------------------------------------------------------------|
E ---------------------------------------------------------------|
  (continued Intro and all Verses)
     C (strum) then
e --------------------------------------------------------------|
B ---1---------------1---1----------1---------------------------|
G ---0---------------0---0-(strum)--0---(strum)-----------------|
D ---2---------------2h3-3----------3p2-------------------------|
A ---3---------------3---3----------3---------------------------|
E --------------------------------------------------------------|

e --------------0------------0----------0--------------------|
B ---------------------------------------------------1-1-----|
G -------2-2------2---2-2------2---2-2-----2---2-2---2-2-----|
D ---3-3------3-----3-----3------3-----3-----3-------3-3-----|
A -----------------------------------------------------------|
E -----------------------------------------------------------|
   (repeat C strumming pattern)

Chorus: Am, F, C (with hammer on and pull off)

Ending: Am, F, C, Em (I believe), Am, F, end on C
Suggest correction
comments
print report bad tab
guest
You may want to rate the tab now too:
select rating
Wanna post a correction for this tab? Suggest correction