Oops, an error
Loading. Please wait.

Sundrenched World Tab

version 1
version 1

Whole song

4,757 views 6 this week
1 commentread comment
1 2 3 4 5
please rate
add to favorites
launch autoscroll
font size
0
reset
how to read this tab
guitar tuner
Autoscroll
slow
fast
+/-
esc
set tempo
stop
Help us to improve Ultimate-Guitar.com Take our survey!
×
Author
Capo
1st fret
This is one of my favorites from Joshua..Enjoy!
This is close to perfect, I didn't tab the strumming, watch youtube and you'll get it.

Capo 1st fret

         Intro
----0-----0-------0------------0-----0-------0--|
----1-----0-------1------------1-----1-------1--|
----2-----1-------2------------2-----0-------2--|
----2-----2-------2---------3--3-----0-------2--|
-0--0-----2----0--0------------------2----0--0--|
-------0--------------------------3--3----------|


 Verse
I can't get to bed     But I'm really tierd
----0-----0------0--0---------0-----0------0----0-------|
----1-----0------1--0-h1------1-----1------1----0--h1---|
----2-----1------2--2---------2-----0------2----2-------|
--3-3-----2------2--2------3--3-----0------2----2-------|
----------2---0--0--0---------------2---0-------0-------|
-------0--0---------0------------3--3-----------0-------|

The thoughts in my head   you used to admire      In your
----0-----0------0--0---------0-----0------0----0-------|
----1-----0------1--0-h1------1-----1------1----0--h1---|
----2-----1------2--2---------2-----0------2----2-------|
--3-3-----2------2--2------3--3-----0------2----2-------|
----------2---0--0--0---------------2---0-------0-------|
-------0--0---------0------------3--3-----------0-------|

Interlude
Sundrenched world
----1-------0--0-----|
----3-------1--0-h1--|
----2-------0--0-----|
-0----------0--0-----|
------------2--2-----|
--------3---3--3-----|

Verse
It couldn't be worse       Don't bother asking     and
----0-----0------0--0---------0-----0------0----0-------|
----1-----0------1--0-h1------1-----1------1----0--h1---|
----2-----1------2--2---------2-----0------2----2-------|
--3-3-----2------2--2------3--3-----0------2----2-------|
----------2---0--0--0---------------2---0-------0-------|
-------0--0---------0------------3--3-----------0-------|

Here comes the nurse        While I'm trying to bask in your
----0-----0------0--0---------0-----0------0----0-------|
----1-----0------1--0-h1------1-----1------1----0--h1---|
----2-----1------2--2---------2-----0------2----2-------|
--3-3-----2------2--2------3--3-----0------2----2-------|
----------2---0--0--0---------------2---0-------0-------|
-------0--0---------0------------3--3-----------0-------|

Interlude
Sundrenched world
----1-------0--0----0-----|
----3-------1--0-h1-0-h1--|
----2-------0--0----0-----|
-0----------0--0----0-----|
------------2--2----2-----|
--------3---3--3----3-----|

Chorus
         I'm talking to you          But your not listening
-----0---0---------0---0---------0----------0--|
-----1---1---------1---0-h1------1----------1--|
-----0---0---------0---0---------2----------2--|
-----2---0-h2------0---0---------2-------3--3--|
--3--3---3---------2---2-------0---------------|
-----0---0------3--3---3-----------------------|

I don't know what to do my heart is blistering
-----0---0---------0---0---------0----------0-----0--0----|
-----1---1---------1---0-h1------1----------1-----1--1----|
-----0---0---------0---0---------2----------2-----0--0----|
-----2---0-h2------0---0---------2-------3--3-----2--0-h2-|
--3--3---3---------2---2-------0---------------3--3--3----|
-----0---0------3--3---3--------------------------0--0----|

Writting this song     tell me I'm not wrong
------0--------0----------0---0----------0--0-----------0-----0-----0-----|
------0--------1----------1---1----------1--0-h1--------0-h1--0-h1--0-h1--|
------1--------2----------0---0----------0--0-----------2-----2-----2-----|
------2----3---3----------2---0-h2-------0--0-----------2-----2-----2-----|
------2--------0-------3--3---3----------2--2-------0---0-----0-----0-----|
--0---0--------0----------0---0------3---3--3-----------0-----0-----0-----|

Verse
I close up my mouth         When your around
----0-----0------0--0---------0-----0------0----0-------|
----1-----0------1--0-h1------1-----1------1----0--h1---|
----2-----1------2--2---------2-----0------2----2-------|
--3-3-----2------2--2------3--3-----0------2----2-------|
----------2---0--0--0---------------2---0-------0-------|
-------0--0---------0------------3--3-----------0-------|

I'm suffocating in doubt     I can't make a sound in your
----0-----0------0--0---------0-----0------0----0-------|
----1-----0------1--0-h1------1-----1------1----0--h1---|
----2-----1------2--2---------2-----0------2----2-------|
--3-3-----2------2--2------3--3-----0------2----2-------|
----------2---0--0--0---------------2---0-------0-------|
-------0--0---------0------------3--3-----------0-------|

Interlude
Sundrenched world
----1-------0--0-----|
----3-------1--0-h1--|
----2-------0--0-----|
-0----------0--0-----|
------------2--2-----|
--------3---3--3-----|

I always wanted to be      The one you looked to for the
----0-----0------0--0---------0-----0------0----0-------|
----1-----0------1--0-h1------1-----1------1----0--h1---|
----2-----1------2--2---------2-----0------2----2-------|
--3-3-----2------2--2------3--3-----0------2----2-------|
----------2---0--0--0---------------2---0-------0-------|
-------0--0---------0------------3--3-----------0-------|

     answers in me         I'm the one who took you to your
----0-----0------0--0---------0-----0------0----0-------|
----1-----0------1--0-h1------1-----1------1----0--h1---|
----2-----1------2--2---------2-----0------2----2-------|
--3-3-----2------2--2------3--3-----0------2----2-------|
----------2---0--0--0---------------2---0-------0-------|
-------0--0---------0------------3--3-----------0-------|

Interlude
Sundrenched world
----1-------0--0----0-----|
----3-------1--0-h1-0-h1--|
----2-------0--0----0-----|
-0----------0--0----0-----|
------------2--2----2-----|
--------3---3--3----3-----|

Chorus
         I'm talking to you          But your not listening
-----0---0---------0---0---------0----------0--|
-----1---1---------1---0-h1------1----------1--|
-----0---0---------0---0---------2----------2--|
-----2---0-h2------0---0---------2-------3--3--|
--3--3---3---------2---2-------0---------------|
-----0---0------3--3---3-----------------------|

I don't know what to do my heart is blistering
-----0---0---------0---0---------0----------0-----0--0----|
-----1---1---------1---0-h1------1----------1-----1--1----|
-----0---0---------0---0---------2----------2-----0--0----|
-----2---0-h2------0---0---------2-------3--3-----2--0-h2-|
--3--3---3---------2---2-------0---------------3--3--3----|
-----0---0------3--3---3--------------------------0--0----|

Writting this song     tell me I'm not wrong
------0--------0----------0---0----------0--0-----------0-----0-----|
------0--------1----------1---1----------1--0-h1--------0-h1--0-h1--|
------1--------2----------0---0----------0--0-----------2-----2-----|
------2----3---3----------2---0-h2-------0--0-----------2-----2-----|
------2--------0-------3--3---3----------2--2-------0---0-----0-----|
--0---0--------0----------0---0------3---3--3-----------0-----0-----|

Bridge
It's all been said     once before
------0-------0--------0--0----------0--0----|
------0-------1--------1--1----------1--0-h1-|
------1-------2--------0--0----------0--0----|
------2---3---3--------2--0-h2-------0--0----|
------2-------0----3---3--3----------2--2----|
--0---0-------0--------0--0------3---3--3----|

We fucked around   on your  bedroom floor
------0-------0--------0--0----------0--0----|
------0-------1--------1--1----------1--0-h1-|
------1-------2--------0--0----------0--0----|
------2---3---3--------2--0-h2-------0--0----|
------2-------0----3---3--3----------2--2----|
--0---0-------0--------0--0------3---3--3----|

-----0---0---------0---0---------0--0-----0----|
-----1---1---------1---0-h1------1--0-h1--0-h1-|
-----0---0---------0---0---------2--2-----2----|
-----2---0-h2------0---0---------2--2-----2----|
--3--3---3---------2---2-------0----0-----0----|
-----0---0------3--3---3-----------------------|

Chorus
         I'm talking to you          But your not listening
-----0---0---------0---0---------0----------0--|
-----1---1---------1---0-h1------1----------1--|
-----0---0---------0---0---------2----------2--|
-----2---0-h2------0---0---------2-------3--3--|
--3--3---3---------2---2-------0---------------|
-----0---0------3--3---3-----------------------|

I don't know what to do my heart is blistering
-----0---0---------0---0---------0----------0-----0--0----|
-----1---1---------1---0-h1------1----------1-----1--1----|
-----0---0---------0---0---------2----------2-----0--0----|
-----2---0-h2------0---0---------2-------3--3-----2--0-h2-|
--3--3---3---------2---2-------0---------------3--3--3----|
-----0---0------3--3---3--------------------------0--0----|

Writting this song     tell me I belong                Tell me
------0--------0----------0---0----------0--0--------0------0-|
------0--------1----------1---1----------1--0-h1-----1------1-|
------1--------2----------0---0----------0--0--------2------2-|
------2----3---3----------2---0-h2-------0--0--------2---3--3-|
------2--------0-------3--3---3----------2--2------0-0------0-|
--0---0--------0----------0---0------3---3--3---------------0-|

I belong              Tell me I..  tell me I
-----0---0---------0---0---------0----------0--|
-----1---1---------1---0-h1------1----------1--|
-----0---0---------0---0---------2----------2--|
-----2---0-h2------0---0---------2-------3--3--|
--3--3---3---------2---2-------0---------------|
-----0---0------3--3---3-----------------------|
   belong          Tell me I     tell me I
-----0---0---------0---0---------0----------0--|
-----1---1---------1---0-h1------1----------1--|
-----0---0---------0---0---------2----------2--|
-----2---0-h2------0---0---------2-------3--3--|
--3--3---3---------2---2-------0---------------|
-----0---0------3--3---3-----------------------|

belong
-----0---0---------0---0---------0---0----0----0-----|
-----1---1---------1---0-h1------1---0-h1-0-h1-0-h1--|
-----0---0---------0---0---------2---2----2----2-----|
-----2---0-h2------0---0---------2---2----2----2-----|
--3--3---3---------2---2-------0-----0----0----0-----|
-----0---0------3--3---3-----------------------------|
Suggest correction new What's this?
You can suggest a correction to this tab. Community and Mods will review your correction and vote to approve or reject it.
comments
We did not receive enough feedback on this tab! Please rate:
print report bad tab
1 2 3 4 5
1 comment total.
0 reply
Silv11 21 wrote on March 5 2009, 03:27 pm

absolutely perfect! i really like it, nice job

guest
You may want to rate the tab now too:
select rating
Please do not post tabs as comments. Select "correction" instead!