Oops, an error
Loading. Please wait.

Right To Be Wrong Tab

version 1
version 1

Whole song

74,743 views 135 this week
3 commentsread comments
1 2 3 4 5
x 10
add to favorites
launch autoscroll
font size
0
reset
how to read this tab
guitar tuner
×
Best way to learn
"Right To Be Wrong"
Autoscroll
slow
fast
+/-
esc
set tempo
stop
Guitartab: Joss Stone - Right To Be Wrong
Tabbed by: Tim Lawson (tlawson@xs4all.nl)

From the album Mind, Body & Soul

The leads are very basic A pentatonic licks, you should be able to find them out easilly.

[Intro]

D Bmin A G x2

(i'll tab out the intro lead just for the fun of it)

e|---------------------------------------------------|
b|---------------------------------------------------|
g|---------------------7-------7-9-7h9~--9b11p7---7~-|
d|-------------------7-7h9--/7-----------------h9----|
a|-----5h7-5~--5h7/9---------------------------------|
e|-5h7-----------------------------------------------|

e|---------------------------------------------------|
b|-------------------10b12-7~--5h7~-7p5~--9b11-9p7~--|
g|----------7----------------------------------------|
d|--7h9-9-9-9p7--7-----------------------------------|
a|-------------h9------------------------------------|
e|---------------------------------------------------|


[Verse 1]

                    A           G
I've got a right to be wrong
                 D                Bmin
My mistakes will make me strong
                          A              G
I'm stepping out into the great unknown
                            D              Bmin
I'm feeling wings though I've never flown
                      A   G
I've got a mind of my own
                      D
I'm flesh and blood to the bone
                      Bmin
I'm not made of stone

                   A    G (quiet)
Got a right to be wrong
So just leave me alone   D D


[Chorus]

                       A
I've got a right to be wrong
                        G
I've been held down too long
                  D
I've got to break free
                 Bmin
So I can finally breathe
                       A
I've got a right to be wrong
                   G
Got to sing my own song
                          D
I might be singing out of key
                       Bmin
But it sure feels good to me
                  A      G (quiet)
Got a right to be wrong
So just leave me alone


[Bridge]

A
You're entitled to your opinion
G
  But it's really my decision
D
  I can't turn back I'm on a mission
       Bmin
If you care don't you dare blur my vision
A
Let me be all that I can be
    G
Don't smother me with negativity
D
  Whatever's out there waiting for me
A                               A A A A
I'm going to faced it willingly


[Verse 1]

                    A           G
I've got a right to be wrong
                 D                Bmin
My mistakes will make me strong
                          A              G
I'm stepping out into the great unknown
                            D              Bmin
I'm feeling wings though I've never flown
                      A   G
I've got a mind of my own
                      D
I'm flesh and blood to the bone
                      Bmin
I'm not made of stone

                   A    G (quiet)
Got a right to be wrong
So just leave me alone   D D


[Chorus]

                       A
I've got a right to be wrong
                        G
I've been held down too long
                  D
I've got to break free
                 Bmin
So I can finally breathe
                       A
I've got a right to be wrong
                   G
Got to sing my own song
                          D
I might be singing out of key
                       Bmin
But it sure feels good to me
                  A      G (quiet)
Got a right to be wrong
So just leave me alone


[Outro]

D Bmin A G x2

(i'll tab out the intro lead just for the fun of it)
e|---------------------------------------------------|
b|---------------------------------------------------|
g|---------------------7-------7-9-7h9~--9b11p7---7~-|
d|-------------------7-7h9--/7-----------------h9----|
a|-----5h7-5~--5h7/9---------------------------------|
e|-5h7-----------------------------------------------|

e|---------------------------------------------------|
b|-------------------10b12-7~--5h7~-7p5~--9b11-9p7~--|
g|----------7----------------------------------------|
d|--7h9-9-9-9p7--7-----------------------------------|
a|-------------h9------------------------------------|
e|---------------------------------------------------|



************************************

| h  Hammer-on
| p  Pull-off
| b  Bend
| /  Slide up
| ~  Vibrato

************************************
Suggest correction
comments
print report bad tab
3 comments total.
+1 reply
turinbrakes 216 Feb 08, 2005 07:00 PM

I'm sorry, I meant to say they're basic pentatonic licks in B, (in stead off A)

:)

+1 reply
Advilmonkeyman 120 Jun 25, 2006 10:42 AM

Does anyone know the Piano lick on guitar?

-2 reply
backthelove 20 Jan 23, 2009 11:31 AM

How do you strum it? please pleh - help backwards :) :)

guest
You may want to rate the tab now too:
select rating
Wanna post a correction for this tab? Suggest correction